Song name
# A B C D E F G H I J K L M N O P Q R S T U V W X Y Z

Tokio Hotel - Strange tab

I don't own this tab. I took this tab from here -->

http://www.youtube.com/watch?v=-XJeqOG_qDw  by TokioHotelCovers.

I made this so that it will be easier for me and for all of you guys who love this song 
play. so enjoy :)

==================================
TOKIO HOTEL FEAT. KERLI - STRANGE
==================================

intro
e|--------------------------|
B|--------------------------|
G|--------------------------|  ( 2x )
D|----------------2--2------|
A|---5--5--5--5--2--2--3--3-|
E|--3--3--5--5--------3--3--|


verse 1
e|---------------------------------------|
B|---------------------------------------|
G|--------------------00000000-----------|    ( 4x )
D|--44444444-44444444-22222222-----------|
A|--44444444-55555555-22222222-33333333--|
E|--33333333-55555555----------33333333--|


chorus
e|--------------------------------------------------------------------------|
B|--------------------------------------------------------------------------|
G|--55555555-77777777-99999999-44444444-55555555----------------------------|
D|--55555555-77777777-99999999-44444444-55555555-66666666-22222222-00000000-|
A|--33333333-55555555-77777777-22222222-33333333-66666666-22222222-33333333-|
E|-----------------------------------------------55555555----------33333333-|

e|------------------------------------------------------------------|
B|------------------------------------------------------------------|
G|--55555555----------------------------55555555----------999999999-|
D|--55555555-44444444-22222222-00000000-55555555-44444444-999999999-|
A|--33333333-55555555-22222222-33333333-33333333-55555555-777777777-|
E|-----------55555555----------33333333----------55555555-----------|


verse 2
e|--------------------------------------|
B|--------------------------------------|
G|--------------------00000000----------|
D|--44444444-44444444-22222222----------|    ( 4x )
A|--44444444-55555555-22222222-33333333-|
E|--33333333-55555555----------33333333-|


chorus
e|--------------------------------------------------------------------------|
B|--------------------------------------------------------------------------|
G|--55555555-77777777-99999999-44444444-55555555----------------------------|
D|--55555555-77777777-99999999-44444444-55555555-66666666-22222222-00000000-|
A|--33333333-55555555-77777777-22222222-33333333-55555555-22222222-33333333-|
E|-----------------------------------------------55555555----------33333333-|

e|--------------------------------------------------------|
B|--------------------------------------------------------|
G|--55555555----------------------------55555555----------|
D|--55555555-44444444-22222222-00000000-55555555-44444444-|
A|--33333333-55555555-22222222-33333333-33333333-55555555-|
E|-----------55555555----------33333333----------55555555-|


bridge
e|--------------------|
B|--------------------|
G|--00000000----------|
D|--22222222-00000000-|    ( 4x )
A|--22222222-33333333-|
E|-----------33333333-|


extended bridge
e|--------------------------------------------------|
B|--------------------------------------------------|
G|--55555555-00000000-22222222-----------5----------|
D|--55555555-22222222-22222222-00000000--5--0--2--0-|
A|--55555555-22222222-00000000-33333333--3--5--2--3-|
E|-----------------------------33333333-----5--0--3-|


chorus
e|--------------------------------------------------------------------------|
B|--------------------------------------------------------------------------|
G|--55555555-77777777-99999999-44444444-55555555----------------------------|
D|--55555555-77777777-99999999-44444444-55555555-66666666-22222222-00000000-|
A|--33333333-55555555-77777777-22222222-33333333-55555555-22222222-33333333-|
E|-----------------------------------------------55555555----------33333333-|

e|-------------------------------------------------------------------|
B|-------------------------------------------------------------------|
G|--55555555----------------------------------------------777777777--|
D|--55555555-44444444-22222222-00000000-55555555-44444444-777777777--|
A|--33333333-55555555-22222222-33333333-55555555-55555555-777777777--|
E|-----------55555555----------33333333-33333333-55555555------------|
Tap to rate this tab
# A B C D E F G H I J K L M N O P Q R S T U V W X Y Z