Song name
# A B C D E F G H I J K L M N O P Q R S T U V W X Y Z

Tokio Hotel - 1000 Meere tab

It's just the intro, maybe in a piano it can sound better. Lets tray it:

-------------------------------------|
-------------------------------------|
------4----3-------4---3-------------|
-7-------------5---------------------|
-------------------------------------|
-5-------------3---------------------|

-------------------------------------|
-------------------------------------|
---4----3--------4----3--------------|
-3------------2----------------------|
-------------------------------------|
-1------------0----------------------|


-------------------------------------|
-------------------------------------|
------4----3-------4---3-------------|
-7-------------5---------------------|
-------------------------------------|
-5-------------3---------------------|

-------------------------------------|
-------------------------------------|
---4----3--------4----3-----3--------|
-3------------2--------------2-------|
------------------------------0------|
-1------------0----------------0-----|
Tap to rate this tab
 
# A B C D E F G H I J K L M N O P Q R S T U V W X Y Z