Tokio Hotel - Sonnensystem tab

-------------------------------------------------------------------------------
			     Sonnensystem - Tokio Hotel
-------------------------------------------------------------------------------
Tabbed by: Magdalena Gamez
Email:Rettemich_483@hotmail.com

I'm not sure this is 100% right, maybe 95%. Rate comment and enjoy

Tuning:Standard

Intro
e|---------------------------------------------------------------------------|
B|---------------------------------------------------------------------------|
G|---------------------------------------------------------------------------|
D|---------------------------------------------------------------------------|
A|---------------------------------------------------------------------------|
E|---------------------------------------------------------------------------|

Preverse
e|-------------------------------------------------------------|
B|-------------------------------------------------------------|
G|-------------------------------------------------------------|
D|3h4-4-4-4----------------------------------------------------| Repeat once more
A|----------4h6-6-6-6------------------------------------------|
E|--------------------4h6-6-6-6--------------------------------|

(You don't have to do hummer ons. So for example it would like this:
D:3-4-4-4
and so on. Same applies for the verse)


Verse:
e|-------------------------------------------------------------|
B|-------------------------------------------------------------|
G|-------------------------------------------------------------|
D|3h4-4-4-4----------------------------------------------------| Play this 9 times
A|----------4h6-6-6-6------------------------------------------|
E|--------------------4h6-6-6-6--------------------------------|

Chorus
e|-------------------------------------------------------------|
B|-------------------------------------------------------------|
G|10-11-11--11-6-8-8-8-----------------------------------------| Play 6 times
D|10-11-11--11-6-8-8-8--6-8-8-8-8-8-8-8------------------------|
A|8--9--9---9--4-6-6-6--6-8-8-8-8-8-8-8------------------------|
E|----------------------4-6-6-6-6-6-6-6------------------------|

Post chorus

e|-----------------------------|
B|-----------------------------|
G|10-11-11--11-6-8-8-8---------|
D|10-11-11--11-6-8-8-8-6-8-8-8-|
A|8--9--9---9--4-6-6-6-6-8-8-8-|
E|---------------------4-6-6-6-|




Verse:
e|-------------------------------------------------------------|
B|-------------------------------------------------------------|
G|-------------------------------------------------------------|
D|3h4-4-4-4----------------------------------------------------| Play this 5 times
A|----------4h6-6-6-6------------------------------------------|
E|--------------------4h6-6-6-6--------------------------------|

Chorus
e|-------------------------------------------------------------|
B|-------------------------------------------------------------|
G|10-11-11--11-6-8-8-8-----------------------------------------| Play 6 times
D|10-11-11--11-6-8-8-8--6-8-8-8-8-8-8-8------------------------|
A|8--9--9---9--4-6-6-6--6-8-8-8-8-8-8-8------------------------|
E|----------------------4-6-6-6-6-6-6-6------------------------|

Prebridge

e|-------------------------------------|
B|-------------------------------------|
G|10-11-11-11-6-8-8-8------------------|
D|10-11-11-11-6-8-8-8------------------|
A|8--9--9--9--4-6-6-6------------------|
E|-------------------------------------|


Bridge

e|---------------------------------------------------------------------------|
B|---------------------------------------------------------------------------|
G|---------------------------------------------------------------------------|
D|4-4-4-4-4-4-4-4-6-6-6-6-6-6-6-6-8-8-8-8-8-8-8-8-10-10-8-8-6----------------| 
A|4-4-4-4-4-4-4-4-6-6-6-6-6-6-6-6-8-8-8-8-8-8-8-8-10-10-8-8-6----------------|
E|2-2-2-2-2-2-2-2-4-4-4-4-4-4-4-4-6-6-6-6-6-6-6-6-8--8--6-6-4----------------|

(okay so you either play the bridge 5or 6 times)

Preverse
e|-------------------------------------------------------------|
B|-------------------------------------------------------------|
G|-------------------------------------------------------------|
D|3h4-4-4-4----------------------------------------------------| Repeat once more
A|----------4h6-6-6-6------------------------------------------|
E|--------------------4h6-6-6-6--------------------------------|


Chorus
e|-------------------------------------------------------------|
B|-------------------------------------------------------------|
G|10-11-11--11-6-8-8-8-----------------------------------------| Play 6 times
D|10-11-11--11-6-8-8-8--6-8-8-8-8-8-8-8------------------------|
A|8--9--9---9--4-6-6-6--6-8-8-8-8-8-8-8------------------------|
E|----------------------4-6-6-6-6-6-6-6------------------------|

Prebridge

e|-------------------------------------|
B|-------------------------------------|
G|10-11-11-11-6-8-8-8------------------|
D|10-11-11-11-6-8-8-8------------------|
A|8--9--9--9--4-6-6-6------------------|
E|-------------------------------------|




************************************

| /   slide up
| \   slide down
| h   hammer-on
| p   pull-off
| ~   vibrato
| +   harmonic
| x   Mute note
| b   Bend
| pb  Pre-bend
| br  Bend release
| pbr Pre-bend release
| brb Bend release bend

************************************
Tap to rate this tab
 
# A B C D E F G H I J K L M N O P Q R S T U V W X Y Z