Song name
# A B C D E F G H I J K L M N O P Q R S T U V W X Y Z

Tokio Hotel - Sonnensystem tab

Intro:

e---------------------------|
B---------------------------|
G---------------------------|  X2
D-4-5-5-5-0-2-2-2-----------|
A-----------------0-2-2-2-2-|
E---------------------------|

Couplet 1:

e---------------------------|
B---------------------------|
G---------------------------| X9
D-4-5-5-5-0-2-2-2-----------|
A-----------------0-2-2-2-2-|
E---------------------------|

Refrain:

e---------------------------|
A---------------------------|
B-6-7-7-7-------------------| X5
G-6-7-7-7-7-9-9-9-6-8-8-8-8-|
D-4-5-5-5-7-9-9-9-6-8-8-8-8-|
E---------5-7-7-7-4-6-6-6-6-|

Couplet 2:

e---------------------------|
A---------------------------|
B---------------------------|  X7
G-4-5-5-5-0-2-2-2-----------|
D-----------------0-2-2-2-2-|
E---------------------------|

Refrain:

e---------------------------|
A---------------------------|
B-6-7-7-7-------------------| X7
G-6-7-7-7-7-9-9-9-6-8-8-8-8-|
D-4-5-5-5-7-9-9-9-6-8-8-8-8-|
E---------5-7-7-7-4-6-6-6-6-|

e-----------------------------------------------------------------|
B-----------------------------------------------------------------|
G-5-5-5-5-5-5-5-5-9-9-9-9-9-9-9-9-----------------7-7-7-7-7-7-7-7-| X5
D-5-5-5-5-5-5-5-5-9-9-9-9-9-9-9-9-9-9-9-9-9-9-9-9-7-7-7-7-7-7-7-7-|
A-3-3-3-3-3-3-3-3-7-7-7-7-7-7-7-7-9-9-9-9-9-9-9-9-5-5-5-5-5-5-5-5-|
E---------------------------------7-7-7-7-7-7-7-7-----------------|

e---------------------------|
B---------------------------|
G---------------------------|  X2
D-4-5-5-5-0-2-2-2-----------|
A-----------------0-2-2-2-2-|
E---------------------------|

e-----------------|
B-----------------|
G-5-5-5-5-5-5-5-5-|  X1
D-5-5-5-5-5-5-5-5-|
A-3-3-3-3-3-3-3-3-|
E-----------------|


e---------------------------|
B---------------------------|
G-6-7-7-7-------------------| X6
D-6-7-7-7-7-9-9-9-6-8-8-8-8-|
A-4-5-5-5-7-9-9-9-6-8-8-8-8-|
E---------5-7-7-7-4-6-6-6-6-|
Tap to rate this tab
 
# A B C D E F G H I J K L M N O P Q R S T U V W X Y Z