Tokio Hotel - Ich Liebe Dich tab

hey this is my first tab, it's basically the intro and the verse...but if you're playing 
guitar
(since tokio hotel only has one guitarist you can play this riff throughout the whole 
I' ll have the full version of the song up soon,
i haven't seen it on any other tab sites.

e|-------------------------------|
b|-------------------------------|
G|12-------12-------12-----------|
D|10-10-10-10-10-10-10-10--------|
A|-------------------------------|
E|-------------------------------|

e|-------------------------------|
b|-------------------------------|
G|8-----8-----8------------------|
D|6-6-6-6-6-6-6-6----------------|
A|-------------------------------|
E|-------------------------------|

e|-------------------------------|
b|-------------------------------|
G|6-----6-----6---6-----6-----6--|
D|4-4-4-4-4-4-4-4-4-4-4-4-4-4-4-4|
A|-------------------------------|
E|-------------------------------|

                                                   *ICH LIEBE TOKIO HOTEL*
Tap to rate this tab
 
# A B C D E F G H I J K L M N O P Q R S T U V W X Y Z