Song name
# A B C D E F G H I J K L M N O P Q R S T U V W X Y Z

Tokio Hotel - By Your Side tab

An Deiner Seite / By Your Side

=i dont think this is 100% correct but you cant try it
 i just see what tom's play in the video zimmer 483 live dvd .
 so good luck.
 is the best way to play it with guitar electric , sounds better .

Verse

------------------------------------------------|
------------------------------------------------|
--6--6--6--6--6--6--6----7--7--7--7--7--7--7----|   x3
--7--7--7--7--7--7--7----7--7--7--7--7--7--7----|
--7--7--7--7--7--7--7----7--7--7--7--7--7--7----|
------------------------------------------------|


------------------------------------------------|
------------------------------------------------|
-------------------------5--5--5--5--5--5--5----|   x1
--6--6--6--6--6--6--6----6--6--6--6--6--6--6----|
--6--6--6--6--6--6--6----6--6--6--6--6--6--6----|
--4--4--4--4--4--4--4---------------------------|


------------------------------------------------|
------------------------------------------------|
--6--6--6--6--6--6--6----7--7--7--7--7--7--7----|   x3
--7--7--7--7--7--7--7----7--7--7--7--7--7--7----|
--7--7--7--7--7--7--7----7--7--7--7--7--7--7----|
------------------------------------------------|


------------------------------------------------|
------------------------------------------------|
-------------------------5--5--5--5--5--5--5----|   x1
--6--6--6--6--6--6--6----6--6--6--6--6--6--6----|
--6--6--6--6--6--6--6----6--6--6--6--6--6--6----|
--4--4--4--4--4--4--4---------------------------|


------------------------------------------------|
------------------------------------------------|
--6--6--6--6--6--6--6----7--7--7--7--7--7--7----|   x1
--7--7--7--7--7--7--7----7--7--7--7--7--7--7----|
--7--7--7--7--7--7--7----7--7--7--7--7--7--7----|
------------------------------------------------|


------------------------------------------------|
------------------------------------------------|
------------------------------------------------|   x1
--9--9--9--9--9--9--9----7--7--7--7--7--7--7----|
--9--9--9--9--9--9--9----7--7--7--7--7--7--7----|
--7--7--7--7--7--7--7----5--5--5--5--5--5--5----|


------------------------------------------------|
------------------------------------------------|
--6--6--6--6--6--6--6----7--7--7--7--7--7--7----|   x1
--7--7--7--7--7--7--7----7--7--7--7--7--7--7----|
--7--7--7--7--7--7--7----7--7--7--7--7--7--7----|
------------------------------------------------|


-------------------------------|
-------------------------------|
-------------------------------|   x1
--9--9--9--9--9--9--9----7~----|
--9--9--9--9--9--9--9----7~----|
--7--7--7--7--7--7--7----5~----|


Chorus

------------------------------------------------|
------------------------------------------------|
--8--8--8--8--8--8--8----9--9--9--9--9--9--9----|    x2
--9--9--9--9--9--9--9----0--0--0--0--0--0--0----|
--7--7--7--7--7--7--7----7--7--7--7--7--7--7----|
------------------------------------------------|


------------------------------------------------|
------------------------------------------------|
--5--5--5--5--5--5--5----6--6--6--6--6--6--6----|    x1
--6--6--6--6--6--6--6----0--0--0--0--0--0--0----|
--4--4--4--4--4--4--4----4--4--4--4--4--4--4----|
------------------------------------------------|


------------------------------------------------|
------------------------------------------------|
--8--8--8--8--8--8--8----9--9--9--9--9--9--9----|    x2
--9--9--9--9--9--9--9----0--0--0--0--0--0--0----|
--7--7--7--7--7--7--7----7--7--7--7--7--7--7----|
------------------------------------------------|


------------------------------------------------|
------------------------------------------------|
--5--5--5--5--5--5--5----6--6--6--6--6--6--6----|    x1
--6--6--6--6--6--6--6----0--0--0--0--0--0--0----|
--4--4--4--4--4--4--4----4--4--4--4--4--4--4----|
------------------------------------------------|


------------------------------------------------|
------------------------------------------------|
--8--8--8--8--8--8--8----9--9--9--9--9--9--9----|    x2
--9--9--9--9--9--9--9----0--0--0--0--0--0--0----|
--7--7--7--7--7--7--7----7--7--7--7--7--7--7----|
------------------------------------------------|


Verse


------------------------------------------------|
------------------------------------------------|
--6--6--6--6--6--6--6----7--7--7--7--7--7--7----|   x3
--7--7--7--7--7--7--7----7--7--7--7--7--7--7----|
--7--7--7--7--7--7--7----7--7--7--7--7--7--7----|
------------------------------------------------|


------------------------------------------------|
------------------------------------------------|
-------------------------5--5--5--5--5--5--5----|   x1
--6--6--6--6--6--6--6----6--6--6--6--6--6--6----|
--6--6--6--6--6--6--6----6--6--6--6--6--6--6----|
--4--4--4--4--4--4--4---------------------------|


------------------------------------------------|
------------------------------------------------|
--6--6--6--6--6--6--6----7--7--7--7--7--7--7----|   x3
--7--7--7--7--7--7--7----7--7--7--7--7--7--7----|
--7--7--7--7--7--7--7----7--7--7--7--7--7--7----|
------------------------------------------------|


------------------------------------------------|
------------------------------------------------|
-------------------------5--5--5--5--5--5--5----|   x1
--6--6--6--6--6--6--6----6--6--6--6--6--6--6----|
--6--6--6--6--6--6--6----6--6--6--6--6--6--6----|
--4--4--4--4--4--4--4---------------------------|


------------------------------------------------|
------------------------------------------------|
--6--6--6--6--6--6--6----7--7--7--7--7--7--7----|   x1
--7--7--7--7--7--7--7----7--7--7--7--7--7--7----|
--7--7--7--7--7--7--7----7--7--7--7--7--7--7----|
------------------------------------------------|


------------------------------------------------|
------------------------------------------------|
------------------------------------------------|   x1
--9--9--9--9--9--9--9----7--7--7--7--7--7--7----|
--9--9--9--9--9--9--9----7--7--7--7--7--7--7----|
--7--7--7--7--7--7--7----5--5--5--5--5--5--5----|


------------------------------------------------|
------------------------------------------------|
--6--6--6--6--6--6--6----7--7--7--7--7--7--7----|   x1
--7--7--7--7--7--7--7----7--7--7--7--7--7--7----|
--7--7--7--7--7--7--7----7--7--7--7--7--7--7----|
------------------------------------------------|


-------------------------------|
-------------------------------|
-------------------------------|   x1
--9--9--9--9--9--9--9----7~----|
--9--9--9--9--9--9--9----7~----|
--7--7--7--7--7--7--7----5~----|


------------------------------------------------|
------------------------------------------------|
--6--6--6--6--6--6--6----7--7--7--7--7--7--7----|   x2
--7--7--7--7--7--7--7----7--7--7--7--7--7--7----|
--7--7--7--7--7--7--7----7--7--7--7--7--7--7----|
------------------------------------------------|


Chorus


------------------------------------------------|
------------------------------------------------|
--8--8--8--8--8--8--8----9--9--9--9--9--9--9----|    x2
--9--9--9--9--9--9--9----0--0--0--0--0--0--0----|
--7--7--7--7--7--7--7----7--7--7--7--7--7--7----|
------------------------------------------------|


------------------------------------------------|
------------------------------------------------|
--5--5--5--5--5--5--5----6--6--6--6--6--6--6----|    x1
--6--6--6--6--6--6--6----0--0--0--0--0--0--0----|
--4--4--4--4--4--4--4----4--4--4--4--4--4--4----|
------------------------------------------------|


------------------------------------------------|
------------------------------------------------|
--8--8--8--8--8--8--8----9--9--9--9--9--9--9----|    x2
--9--9--9--9--9--9--9----0--0--0--0--0--0--0----|
--7--7--7--7--7--7--7----7--7--7--7--7--7--7----|
------------------------------------------------|


------------------------------------------------|
------------------------------------------------|
--5--5--5--5--5--5--5----6--6--6--6--6--6--6----|    x1
--6--6--6--6--6--6--6----0--0--0--0--0--0--0----|
--4--4--4--4--4--4--4----4--4--4--4--4--4--4----|
------------------------------------------------|


------------------------------------------------|
------------------------------------------------|
--8--8--8--8--8--8--8----9--9--9--9--9--9--9----|    x2
--9--9--9--9--9--9--9----0--0--0--0--0--0--0----|
--7--7--7--7--7--7--7----7--7--7--7--7--7--7----|
------------------------------------------------|


Bridge

----------------------------------------------------------------------------------------------|
----------------------------------------------------------------------------------------------|
--4--4--4--4--4--4--4----6--6--6--6--6--6--6--------------------------------------------------| x1
--4--4--4--4--4--4--4----6--6--6--6--6--6--6----7--7--7--7--7--7--7----2--2--2--2--2--2--2----|
--2--2--2--2--2--2--2----4--4--4--4--4--4--4----7--7--7--7--7--7--7----2--2--2--2--2--2--2----|
------------------------------------------------5--5--5--5--5--5--5---------------------------|

----------------------------------------------------------------------------------------|
----------------------------------------------------------------------------------------|
--4--4--4--4--4--4--4----6--6--6--6--6--6--6--------------------------------------------| x1
--4--4--4--4--4--4--4----6--6--6--6--6--6--6----7--7--7--7--7--7--7----2--2--2--2--2----|
--2--2--2--2--2--2--2----4--4--4--4--4--4--4----7--7--7--7--7--7--7----2--2--2--2--2----|
------------------------------------------------5--5--5--5--5--5--5---------------------|


------------------------------------------|
------------------------------------------|
--4--4--4--4--4--4--4---------------------|   x1
--4--4--4--4--4--4--4----2--2--2--2--2----|
--2--2--2--2--2--2--2----2--2--2--2--2----|
------------------------------------------|


------------------------------------------------|
------------------------------------------------|
--4--4--4--4--4--4--4---------------------4~----|   x1
--4--4--4--4--4--4--4----2--2--2--2--2----4~----|
--2--2--2--2--2--2--2----2--2--2--2--2----2~----|
------------------------------------------------|


------------------------------------------------|
------------------------------------------------|
--6--6--6--6--6--6--6----7--7--7--7--7--7--7----|   x2
--7--7--7--7--7--7--7----7--7--7--7--7--7--7----|
--7--7--7--7--7--7--7----7--7--7--7--7--7--7----|
------------------------------------------------|


----------------------------------------------------------------------------------------------|
----------------------------------------------------------------------------------------------|
--4--4--4--4--4--4--4----6--6--6--6--6--6--6--------------------------------------------------| x3
--4--4--4--4--4--4--4----6--6--6--6--6--6--6----7--7--7--7--7--7--7----2--2--2--2--2--2--2----|
--2--2--2--2--2--2--2----4--4--4--4--4--4--4----7--7--7--7--7--7--7----2--2--2--2--2--2--2----|
------------------------------------------------5--5--5--5--5--5--5---------------------------|


----------------------------------------------------------------------------------------|
----------------------------------------------------------------------------------------|
--4--4--4--4--4--4--4----6--6--6--6--6--6--6--------------------------------------------| x1
--4--4--4--4--4--4--4----6--6--6--6--6--6--6----7--7--7--7--7--7--7----2--2--2--2--2----|
--2--2--2--2--2--2--2----4--4--4--4--4--4--4----7--7--7--7--7--7--7----2--2--2--2--2----|
------------------------------------------------5--5--5--5--5--5--5---------------------|


------------------------------------------|
------------------------------------------|
--4--4--4--4--4--4--4---------------------|   x1
--4--4--4--4--4--4--4----2--2--2--2--2----|
--2--2--2--2--2--2--2----2--2--2--2--2----|
------------------------------------------|


------------------------------------------------|
------------------------------------------------|
--4--4--4--4--4--4--4---------------------4~----|   x1
--4--4--4--4--4--4--4----2--2--2--2--2----4~----|
--2--2--2--2--2--2--2----2--2--2--2--2----2~----|
------------------------------------------------|


------------------------------------------------|
------------------------------------------------|
--6--6--6--6--6--6--6----7--7--7--7--7--7--7----|   x2
--7--7--7--7--7--7--7----7--7--7--7--7--7--7----|
--7--7--7--7--7--7--7----7--7--7--7--7--7--7----|
------------------------------------------------|



------------------------------|
------------------------------|
--6--6--6--6--6--6--6----7----|  x1
--7--7--7--7--7--7--7----7----|
--7--7--7--7--7--7--7----7----|
------------------------------|
Tap to rate this tab
 
# A B C D E F G H I J K L M N O P Q R S T U V W X Y Z