Song name
# A B C D E F G H I J K L M N O P Q R S T U V W X Y Z

Tokio Hotel - Bers Ende Der Welt tab

All downstrokes, simple rhythm, tuning: you're on your own, although I know it's close to D#.


Intro
E|---------------------------------------------|------------------------------------------|-
B|---------------------------------------------|------------------------------------------|-
G|---------------------------------------------|------------------------------------------|-
D|---------------------------------------------|------------------------------------------|-
A|-12-12-12-9-9-9-9-10-10-10-10-10-10-10-10-10-|-12-12-12-9-9-9-9-10-10-10-10-10-10-10-10-|-
E|-0--0--0--0-0-0-0-8--8--8--8--8--8--8--8--8--|-0--0--0--0-0-0-0-8--8--8--8--10-10-10-10-|-


Alternative Intro
E|------------------------------------|------------------------------------|-
B|------------------------------------|------------------------------------|-
G|------------------------------------|------------------------------------|-
D|------------------5-5-5-5-5-5-5-5-5-|------------------5-5-5-5-5-5-5-5-5-|-
A|-12-12-12-9-9-9-9-3-3-3-3-3-3-3-3-3-|-12-12-12-9-9-9-9-3-3-3-3-5-5-5-5-5-|-
E|-0--0--0--0-0-0-0-------------------|-0--0--0--0-0-0-0-------------------|-


First Verse
E|---------------------------------------------|---------------------------------------------|-
B|---------------------------------------------|---------------------------------------------|-
G|---------------------------------------------|---------------------------------------------|-
D|---------------------------------------------|---------------------------------------------|-
A|-12-12-12-9-9-9-9-10-10-10-10-10-10-10-10-10-|-12-12-12-9-9-9-9-10-10-10-10-10-10-10-10-10-|-
E|-0--0--0--0-0-0-0-8--8--8--8--8--8--8--8--8--|-0--0--0--0-0-0-0-8--8--8--8--10-10-10-10-10-|-



E|---------------------------------------------|---------------------------------|-
B|---------------------------------------------|---------------------------------|-
G|---------------------------------------------|---------------------------------|-
D|---------------------------------------------|---------------------------------|-
A|-12-12-12-9-9-9-9-10-10-10-10-10-10-10-10-10-|-2-2-2-2-2-2-2-2-3-3-3-3-3-3-3-3-|-
E|-0--0--0--0-0-0-0-8--8--8--8--10-10-10-10-10-|-2-2-2-2-2-2-2-2-3-3-3-3-3-3-3-3-|-



E|---------------------------------------------|---------------------------------------------|-
B|---------------------------------------------|---------------------------------------------|-
G|---------------------------------------------|---------------------------------------------|-
D|---------------------------------------------|---------------------------------------------|-
A|-12-12-12-9-9-9-9-10-10-10-10-10-10-10-10-10-|-12-12-12-9-9-9-9-10-10-10-10-10-10-10-10-10-|-
E|-0--0--0--0-0-0-0-8--8--8--8--8--8--8--8--8--|-0--0--0--0-0-0-0-8--8--8--8--10-10-10-10-10-|-



E|---------------------------------------------|---------------------------------|-
B|---------------------------------------------|---------------------------------|-
G|---------------------------------------------|---------------------------------|-
D|---------------------------------------------|---------------------------------|-
A|-12-12-12-9-9-9-9-10-10-10-10-10-10-10-10-10-|-2-2-2-2-2-2-2-2-3-3-3-3-3-3-3-3-|-
E|-0--0--0--0-0-0-0-8--8--8--8--10-10-10-10-10-|-2-2-2-2-2-2-2-2-3-3-3-3-3-3-3-3-|-


Pre-chorus
E|---------------------------------|---------------------------------|-
B|---------------------------------|---------------------------------|-
G|---------------------------------|---------------------------------|-
D|-2-2-2-4-4-4-4-0-0-0-0-0-0-0-0-0-|-2-2-2-4-4-4-4-0-0-0-0-0-0-0-0-0-|-
A|-3-3-3-5-5-5-5-2-2-2-2-2-2-2-2-2-|-3-3-3-5-5-5-5-2-2-2-2-2-2-2-2-2-|-
E|---------------------------------|---------------------------------|-


Alternative Pre-chorus
E|----------------------------------|----------------------------------|-
B|----------------------------------|----------------------------------|-
G|----------------------------------|----------------------------------|-
D|-2--2---4--4---0----0-0-0-0-0-0-0-|-2--2---4--4---0----0-0-0-0-0-0-0-|-
A|-3--3---5--5---2----2-2-2-2-2-2-2-|-3--3---5--5---2----2-2-2-2-2-2-2-|-
E|----------------------------------|----------------------------------|-
Tap to rate this tab
 
# A B C D E F G H I J K L M N O P Q R S T U V W X Y Z