Tokio Hotel - Wenn Nichts Mehr Geht tab

e|-----------------------------------------------------------------|
B|-----------------------------------------------------------------|
G|-----------------------------------------------------------------|     
D|------------------8-8-8-7-7-7------------------------------------|      
A|-6-6-6-5-5-5------------------8-8-5-5-5-5-5-5-5-5-7-7-7-7-7-7-7-7|
E|-------------6-6-------------------------------------------------|

Verse:

Keiner mehr da der mich wirklich kennt
e|-----------------------------------------------------------------|
B|-----------------------------------------------------------------|
G|-----------------------------------------------------------------|     
D|------------------8-8-8-7-7-7------------------------------------|      
A|-6-6-6-5-5-5------------------8-8-5-5-5-5-5-5-5-5-7-7-7-7-7-7-7-7|
E|-------------6-6-------------------------------------------------|


Meine welt bricht grad' zusammen
Und es läuft'n happy-end
e|-----------------------------------------------------------------|
B|-----------------------------------------------------------------|
G|-----------------------------------------------------------------|     
D|------------------8-8-8-7-7-7------------------------------------|      
A|-6-6-6-5-5-5------------------8-8-5-5-5-5-5-5-5-5-7-7-7-7-7-7-7-7|
E|-------------6-6-------------------------------------------------|


Um dich weinen soll ich nicht
Ich weiß unsterblich sind wir nicht
e|---------------------------------|
B|---------------------------------|
G|---------------------------------|    x2   
D|---------------------------------|      
A|-5-5-5-5-6-6-6-6-1-1-1-1-3-3-3-3-|
E|---------------------------------|


Aber du hast mal gesagt
e|-------------|
B|-------------|
G|-------------|     
D|-------------|      
A|-5-4-5-4-5---|
E|-------------|
Tap to rate this tab
 
# A B C D E F G H I J K L M N O P Q R S T U V W X Y Z