Song name
# A B C D E F G H I J K L M N O P Q R S T U V W X Y Z

Tokio Hotel - Automatic tab

Intro

e ----------------------------------------------------------------------|
H --------------------------------------------------------------8---8---|
G --8-----8-----8-----8----8---8----10-----10-----10-----10-------8---8-|
D ----8-8---8-8---8-8---8-8--8---8-----8-8----8-8----8-8----8-8---------|
A ----------------------------------------------------------------------|
E ----------------------------------------------------------------------|

Chorus

e ----------------------------------------------------------------------|
H ----------------------------------------------------------------------|
G ----------------------------------------------------------------------|
D ----------------------------------------------------------------------|
A --6-6-6-6-6-6-6-6-10-10-10-10--8-8-8-8-8-8-8-8--5-5-5-5---------------|
E --4-4-4-4-4-4-4-4--8--8--8--8--6-6-6-6-6-6-6-6--3-3-3-3---------------|

Guitar ''solo''

e ------------------------------------------------------------------------|
H -13-13-13-13-13-13-13-13----------------------15-15-15-15-15------------|
G -------------------------12-12-12-12-12-12-12---------------------------|
D ---------------------------------------------------------13-13-13-13-13-|
A ------------------------------------------------------------------------|
E ------------------------------------------------------------------------|

After the solo

e ----------------------------------|
H ----------------------------------|
G ----------------------------------|
D ----------------------------------|
A -6-6-6--5-5-5--10-10-10--8-8-8----|
E -4-4-4--3-3-3--8--8--8---6-6-6----|

Only Guitar

e ----------------------------------------|
H ----------------------------------------|
G --8--7--5----8--7--5----8--7--5---------|
D ----------------------------------------|
A ----------------------------------------|
E ----------------------------------------|

After

e --------------------------------------------------------------------------|
H --------------------------------------------------------------------------|
G -5-5-5-5-5-5-5-5-5-5--7-7-7-7-7-7-7-7-7--8-8-8--12-12-12-12-12--10-10-10--|
D-x-x-x-x-x-x-x-x-x-x---x-x-x-x-x-x-x-x-x--x-x-x--x-x-x-x-x-x-x---x-x-x-x-x-|
A -3-3-3-3-3-3-3-3-3-3--5-5-5-5-5-5-5-5-5--6-6-6--10-10-10-10-10--8--8--8---|
E --------------------------------------------------------------------------|

e --------------------------------------------------------------------------|
H --------------------------------------------------------------------------|
G -5-5-5-5-5-5-5-5-5-5--7-7-7-7-7-7-7-7-7---8-8-8--15-15-15-15-15--10-10-10-|
D -x-x-x-x-x-x-x-x-x-x--x-x-x-x-x-x-x-x-x---x-x-x--x-x-x-x-x-x-x---x-x-x-x--|
A -3-3-3-3-3-3-3-3-3-3--5-5-5-5-5-5-5-5-5---6-6-6--13-13-13-13-13--8--8--8--|
E --------------------------------------------------------------------------|

After that chorus

Then guitar ''solo''

End :
e -----
H -----
G -----
D -6---
A -6---
E -4---
Tap to rate this tab
 
# A B C D E F G H I J K L M N O P Q R S T U V W X Y Z