Song name
# A B C D E F G H I J K L M N O P Q R S T U V W X Y Z

Tokio Hotel - In Your Shadow I Can Shine tab

Tabbed By: Akayda :p

First tab, might be better than the others perhaps? Nein! :P

e|----------------|----------------|----------------|----------------|
B|----------------|----------------|----------------|----------------|
G|----3---3-------|----3---3-------|----3---3-------|----3---3-------|
D|----3---3-------|----3---3-------|----3---3-------|----3---3-------|
A|----------------|----------------|--1---1---------|--1---1---------|
E|--3---3---------|--1---1---------|----------------|----------------|

Play through song. ( I know you don't, but when I find out I'll submit a new tab.)

When it gets to the part when Bill sings "Dooon't let go-o-o-o no.", Play this:
____
e|---------------|---------------|---------------|---------------|
B|---------------|---------------|---------------|---------------|
G|---------------|---------------|---------------|---------------|
D|6-6-6-6-6-6-6-6|2-2-2-2-2-2-2-2|4-4-4-4-4-4-4-4|---------------|
A|4-4-4-4-4-4-4-4|0-0-0-0-0-0-0-0|2-2-2-2-2-2-2-2|6-6-6-6-6-6-6-6|
E|---------------|---------------|---------------|4-4-4-4-4-4-4-4|

e|---------------|---------------|---------------|---------------|
B|---------------|---------------|---------------|---------------|
G|---------------|---------------|---------------|---------------|
D|6-6-6-6-6-6-6-6|2-2-2-2-2-2-2-2|4-4-4-4-4-4-4-4|4-4-4-4-4-4-4-4|
A|4-4-4-4-4-4-4-4|0-0-0-0-0-0-0-0|2-2-2-2-2-2-2-2|2-2-2-2-2-2-2-2|
E|---------------|---------------|---------------|---------------|

e|---------------|---------------|---------------|---------------|
B|---------------|---------------|---------------|---------------|
G|---------------|---------------|---------------|---------------|
D|6-6-6-6-6-6-6-6|2-2-2-2-2-2-2-2|4-4-4-4-4-4-4-4|---------------|
A|4-4-4-4-4-4-4-4|0-0-0-0-0-0-0-0|2-2-2-2-2-2-2-2|6-6-6-6-6-6-6-6|
E|---------------|---------------|---------------|4-4-4-4-4-4-4-4|
____x2

Finish:

e|---------------|
B|---------------|
G|--4------------|
D|--4------------|
A|--2------------|
E|---------------|
Tap to rate this tab
# A B C D E F G H I J K L M N O P Q R S T U V W X Y Z