Song name
# A B C D E F G H I J K L M N O P Q R S T U V W X Y Z

Tokio Hotel - Zoom Into Me tab

Hi, Me llamo Camilo Tengo 15 Soy De Colombia y quiero mostrarles mi proyecto "Zoom 
Into Me" Para Guitar Acoustic. Esta es la primera ves que hago una tablura pero 
ojala os guste, para que salga bien, necesitaras otros 2 guitaristas :P, aqui va...

Verse:
Guitar 1:

e|----------------------------------------------------|
B|------0------0------0-----0----0-----0----0-----0---|
G|----0------0------0-----0----0-----0----0-----0-----|
D|--2------2------2-----2-----------------------------|         2x
A|---------------------------3-----3-----3----3-------|
E|----------------------------------------------------|

e|-----------------0------0------------------0-----0-----|
B|----1-----1--------1------1---1-----1--------1---------|
G|------2-----2--2-----2----------2-----2--2-----2---2---|
D|--3-----3-------------------3-----3--------------------|
A|-------------------------------------------------------|
E|-------------------------------------------------------|

e|---------------------------------|
B|------3----3--1-0----------------|
G|----2----2--------0-2------------|
D|--5----5-------------2-0-2-------|
A|---------------------------------|
E|---------------------------------|


e|----------------------------------------------------|
B|------0------0------0-----0----0-----0----0-----0---|
G|----0------0------0-----0----0-----0----0-----0-----|
D|--2------2------2-----2-----------------------------|         2x
A|---------------------------3-----3-----3----3-------|
E|----------------------------------------------------|

Pre-Coro:
e|-----------------0------0------------------0-----0-------------------|
B|----1-----1--------1------1---1-----1--------1-------------3----3----|
G|------2-----2--2-----2----------2-----2--2-----2---2-----2----2------|
D|--3-----3-------------------3-----3--------------------5----5-----5--|
A|---------------------------------------------------------------------|
E|---------------------------------------------------------------------|



Coro:
(Opening)
Guitar 1: 
e|--------5-----0-----2-----------5-----4-----2-----|
B|--3---3-----3-----3-----3(2)--2-----2-----2-----2-|
G|----2-----2-----2-----2-----2-----2-----2-----2---|    x2
D|--------------------------------------------------|
A|--------------------------------------------------|

Guitar 2:
e|-------5(6x)-0(6x)-2(x6)-------5(x6)-4(x6)-2(x6)-0-----------------|
B|--3(x6)-------------------2(x6)------------------------------------|
G|-------------------------------------------------------------------| x2
D|-------------------------------------------------------------------|
A|-------------------------------------------------------------------|

Guitar 3:
e|----------------------------------|
B|----------------------------------|
G|----------------------------------| x2
D|---((0))--------------------------|
A|--------((2))------((0))----------|
E|--------------((2))---------------|

(Ending)
Guitar 1:
e|-------2-2-----------------2-2-------|
B|--3-3--3-3--5-5-5-5---3-3--3-3--5-5--|
G|--4-4--4-4--6-6-6-6---4-4--4-4--6-6--|
D|--5-5-------7-7-7-7---5-5-------7-7--|
A|-------------------------------------|

Guitar 2:
e|------------2(x6)-----0(x18)-2(x2)-0(x2)----------------2(x6)-----0(x13)-|
B|-------0(x6)-----0(x6)-------------------2(x2)3(x6)----------0(x6)-------|
G|--0(x6)--------------------------------------------0(x6)-----------------|
D|-------------------------------------------------------------------------|
A|-------------------------------------------------------------------------|
E|-------------------------------------------------------------------------|

Guitar 3
e|----------------------------------------|
B|----------------------------------------|
G|----------------------------------------|
D|-------((0))-----((2))-----((0))--------|
A|------------((0))---------------((0))---|
E|--((3))---------------((3))-------------|

Post-Coro:

e----------------------|
B|--1-0----------------|
G|------0-2------------|
D|---------2-0-2-------|
A|---------------------|
E|---------------------|


Verse 2:


e|----------------------------------------------------|
B|------0------0------0-----0----0-----0----0-----0---|
G|----0------0------0-----0----0-----0----0-----0-----|
D|--2------2------2-----2-----------------------------|         2x
A|---------------------------3-----3-----3----3-------|
E|----------------------------------------------------|

Pre-Coro:

e|-----------------0------0------------------0-----0-------------------|
B|----1-----1--------1------1---1-----1--------1-------------3----3----|
G|------2-----2--2-----2----------2-----2--2-----2---2-----2----2------|
D|--3-----3-------------------3-----3--------------------5----5-----5--|
A|---------------------------------------------------------------------|
E|---------------------------------------------------------------------|


Coro:
(Opening)
Guitar 1: 
e|--------5-----0-----2-----------5-----4-----2-----|
B|--3---3-----3-----3-----3(2)--2-----2-----2-----2-|
G|----2-----2-----2-----2-----2-----2-----2-----2---|    x2
D|--------------------------------------------------|
A|--------------------------------------------------|

Guitar 2:
e|-------5(6x)-0(6x)-2(x6)-------5(x6)-4(x6)-2(x6)-0-----------------|
B|--3(x6)-------------------2(x6)------------------------------------|
G|-------------------------------------------------------------------| x2
D|-------------------------------------------------------------------|
A|-------------------------------------------------------------------|

Guitar 3
e|--2-----1-----1-----0---------------------|
B|--3-----2-----1-----2---------------------|
G|--2-----3-----2-----2---------------------|
D|--0-----3-----3-----2---------------------|  x2
A|--------1-----3-----0---------------------|
E|--------------1---------------------------|

Esta es una parte.. cuando lo termine lo publicare entero..
Tap to rate this tab
# A B C D E F G H I J K L M N O P Q R S T U V W X Y Z