Song name
# A B C D E F G H I J K L M N O P Q R S T U V W X Y Z

Tokio Hotel - Attention tab

Ok, so I was searching for a good tab of "Attention." But, I didn't find good tabs. So, 
I learned this by searching for chords and by ear. So, this I am 99% sure.


Capo on the 1st Fret

INTRO

You repeat this twice, both guitars 1 and 2.

Gtr.1 (the "/" means slide)
|-------------------------------------------------------------------|
|-------------------------------------------------------------------|
|------4-5-7-5---4-----4-5-7-5---4-----4-5-7-5---4-----4-5-7-5/2----|
|-------------------------------------------------------------------|
|-------------------------------------------------------------------|
|-------------------------------------------------------------------|

Gtr. 2 (feel the tempo of the strumming)
|-------------------------------------------------------------------|
|-------------------------------------------------------------------|
|---0-0---0-0---0-0---0-0---0-0---0-0---0-0---0-0-------------------|
|---2-2---2-2---2-2---2-2---0-0---0-0---0-0---0-0-------------------|
|---2-2---2-2---3-3---3-3---2-2---2-2---0-0---0-0-------------------|
|---0-0---0-0---0-0---0-0---3-3---3-3---2-2---2-2-------------------|



VERSE 1

The intro of guitar 2 is the same with the verses. So, just repeat the intro of gtr.2 
until refrain.


REFRAIN

Just feel the rhythm and tempo of the song, you'll know when to strum that to this.
|-------------------------------------------------------------------|
|-------------------------------------------------------------------|
|-------------------------------------------------------------------|
|----------------5-5-5-5-----------------5-5-5-5-----7-7------------|
|----7-7-7-7-----3-3-3-3-----7-7-7-7-----3-3-3-3-----5-5------------|
|----5-5-5-5-----0-0-0-0-----5-5-5-5-----0-0-0-0-----0-0------------|


CHORUS

It's not what you said......I choose to be lonely.
|-------------------------------------------------------------------|
|-------------------------------------------------------------------|
|--0-0-0-0-----0-0-0-0-----0-0-0-0----------------------------------|
|--2-2-2-2-----5-5-5-5-----7-7-7-7----------------------------------|
|--2-2-2-2-----3-3-3-3-----5-5-5-5-----7-7-7-7----------------------|
|--0-0-0-0-----0-0-0-0-----0-0-0-0-----5-5-5-5----------------------|



Than live without your... (one strum only)
|---------0---------------------------------------------------------|
|---------1---------------------------------------------------------|
|---------0---------------------------------------------------------|
|---------2---------------------------------------------------------|
|---------3---------------------------------------------------------|
|---------0---------------------------------------------------------|




Attention.... (you hear something afterwards, right? I'm not 100% sure about this, but I 
think it sounds like it. You may correct it, if you want.)

|------------------0-----3---0--------------------------------------|
|-----------0---1-----1---------------------------------------------|
|---------0---------------------------------------------------------|
|-------2-----------------------------------------------------------|
|-----3-------------------------------------------------------------|
|---0---------------------------------------------------------------|


VERSE 2

The same again.


REFRAIN

The same again.



CHORUS 2

You just strum continuously "C" chord until the start of the bridge.


BRIDGE

I'm standing... (repeat this twice)
|-------------------------------------------------------------------|
|-------------------------------------------------------------------|
|--0-0-0-0-----5-5-5-5-----7-7-7-7-7-7-7-7-----4-5-4----------------|
|--2-2-2-2-----5-5-5-5-----7-7-7-7-7-7-7-7--------------------------|
|--2-2-2-2-----3-3-3-3-----5-5-5-5-5-5-5-5--------------------------|
|--0-0-0-0-----0-0-0-0-----0-0-0-0-0-0-0-0--------------------------|


That I'm starving....                   (strum this softly)
|-----------------------------------------0-------------------------|
|-----------------------------------------1-------------------------|
|---5-5-5-5----7-7-7-7----5-5-5-5---------0-------------------------|
|---5-5-5-5----7-7-7-7----5-5-5-5---------2-------------------------|
|---3-3-3-3----5-5-5-5----3-3-3-3---------3-------------------------|
|---0-0-0-0----0-0-0-0----0-0-0-0---------0-------------------------|



OUTRO

Attention...
Strum the "C" chord softly.
Tap to rate this tab
 
# A B C D E F G H I J K L M N O P Q R S T U V W X Y Z