Song name
# A B C D E F G H I J K L M N O P Q R S T U V W X Y Z

Tokio Hotel - Jung Und Nicht Mehr Jugentfrei tab

Anfang clean:GEZUPFT
INTRO:
e:--0--0------0--0---|
h:-------------------| 2x
g:-4--4--4-----------|
D:2--2--2----4--4--4-|
A:----------2--2--2--|
E:-------------------|

VERSE:GEZUPFT
e:--0--0------0--0------0--0------0--0-------0--0-----0--0-----0--0---|
h:--------------------------------------------------------------------|
g:-4--4--4----------------------------------4--4--4-------------------|
D:2--2--2---4--4---4---6--6--6---2--2---2--2--2--2---4--4--4----------|
A:---------2--2---2---4--4--4---0--0---0------------2--2--2---6--6--6-|
E:-----------------------------------------------------------4--4--4--|

e:--0--0---|
h:---------|
g:---------| nur 1x
D:---------|
A:-7--7--7-| dann mit gesang
E:5--5--5--|

Ihr steht immer pünklich auf und verpennt was bei und geht.
Ich seh was,was du nicht siehst kuck mal was auf unsern Jacken steht.

Text:JETZT VERZERT ABER ABGEDÄMPFT
e:-----------------------------------------------------------------|
h:-----------------------------------------------------------------|
g:4-4-4-4-4-4-4-4--------------------------------------------------| 2x
D:2-2-2-2-2-2-2-2-4-4-4-4-4-4-4-4----------------------------------|
A:----------------2-2-2-2-2-2-2-2-6-6-6-6-6-6-6-6-7-7-7-7-7-7-7-7--|
E:--------------------------------4-4-4-4-4-4-4-4-5-5-5-5-5-5-5-5--|

Schuldigung du stehst im Weg und wir müssen hier vorbei!

e:--|   |---|    |---|
h:--|   |---|    |---|
g:--|   |---|    |---|
D:4-|8x |-6-| 8x |---|16x
A:2-|   |-4-|    |-7-|
E:--|   |---|    |-5-|

REFR.:

Wir sind jung und nicht mehr jugendfrei tut mir leid ich weis wir solln nich doch wir 
mal zu leben an.
Wir sind jung und nicht mehr jugendfrei eure rechnung ist mit uns nicht aufgegang.Wir 
schon mal zu leben an.

e:-------------------------------------------------------------------------|
h:-------------------------------------------------------------------------|
g:4-4-4-4-4-4-4-4----------------------------------------------------------|
D:2-2-2-2-2-2-2-2-4-4-4-4-4-4-4-4-6-6-6-6-6-6-6-6-2-2-2-2-2-2-2-2----------|
A:----------------2-2-2-2-2-2-2-2-4-4-4-4-4-4-4-4-0-0-0-0-0-0-0-0----------|
E:-------------------------------------------------------------------------|

e:----------------------------------------------------------------|
h:----------------------------------------------------------------|
g:4-4-4-4-4-4-4-4-------------------------------------------------|
D:2-2-2-2-2-2-2-2-4-4-4-4-4-4-4-4---------------------------------|
A:----------------2-2-2-2-2-2-2-2-6-6-6-6-6-6-6-6-7-7-7-7-7-7-7-7-|
E:--------------------------------4-4-4-4-4-4-4-4-5-5-5-5-5-5-5-5-|

DANN WIEDER DIE TEXTSTELLE ABER MIT 2 STROPHE
2 STROPHE:

Ihr schaut immer gradeaus habt uns nicht kommen sehn.
Hallo ihr hab ein Problem weil wir das Komando übernehm.

DANN WIEDER:

Suhuldigung ihr steht im W.....................

UND WIEDER REFR.:

DANN KOMMT DER SCHWISCHENTEIL:

Wir sind jung und nicht mehr,jung und nicht mehr,jung und nicht mehr| jugentfrei.        
                                                |
Wir sind jung und nicht mehr,jung und nicht mehr,jung und nicht mehr|    jugentfrei.     
                                                   |

WIRD GENAU SO GESPIELT WIE TEXT:

Wir sind immer was ihr grad nicht braucht.
Das ist traurig aber mitlerweile "SCHEIS" ich drauf.

Dann wieder refr.:1x
UND DANN wieder den ZWISCHENTEIL 2 MAL MIT AUSKLANG


VIEL SPASS BEIM EINÜBEN
Tap to rate this tab
# A B C D E F G H I J K L M N O P Q R S T U V W X Y Z