Song name
# A B C D E F G H I J K L M N O P Q R S T U V W X Y Z

Tokio Hotel - Schrei tab

Hi..I'm is Ruben, i'm 15 and i'ts my first tab.. so go easy on me :P
I might be wrong so if I am.. mail me or something.. here's my hotmail:

ettema12@hotmail.com

Oh.. by the way...
I'ts in drop D tuning and I don't know the part of the Bass
And please.. please rate for me ;)




e-----------------x-x--|    |-------|
C--------2-3-0-2--x-x--|    |-------|
G-----------------x-x--|    |-------|
D-----------------x-x--| x4 |-------|
A----5------------x-x--|    |-------|
E--0-0---5-6-3-5--x-x--|    |--0-8--|

Bass                        Guitar       
e--------------------------||--8-5-555555------|
C--------------------------||-------------6----|
G--------------------------||------------------|
D--------------------------||------------------|
A--------------------------||------------------|
E-0-0-00-00-0--8-8-88-88-8-||------------------|

Bass                        Guitar       
e--------------------------||--8-5-555555------|
C--------------------------||-------------6----|
G--------------------------||------------------|
D--------------------------||------------------|x3
A--------------------------||------------------|
E-0-0-00-00-0--8-8-88-88-8-||------------------|
Du stehst auf und kriegst gesagt wohin du gehen sollst
Wenn du da bist hörst du auch noch was du denken sollst
Danke, das war mal wieder echt 'n geiler Tag

Bass                   Guitar       
e--------------------------||--8-5-555555------|
C--------------------------||-------------6----|
G--------------------------||------------------|
D--------------------------||------------------|
A--------------------------||------------------|
E-0-0-00-00-0-----8-8-8----||------------------|
Du sagst nichts und keiner fragt dich: Sag mal, willst du das

e-----------------x-x-|
C-----------------x-x-|
G-----------------x-x-|
D-55555555-888888-x-x-|
A-55555555-888888-x-x-|
E-55555555-888888-x-x-|
Nein - nein - nein - nananana nein
Nein - nein - nein - nananana nein


e--------------------|    |--------------------|
C--------------------|    |--------------------|
G--------------------|    |--------------------|
D--------------------| x3 |--8-8---5-5-7-7-7---|
A----5---------------|    |--8-8---5-5-7-7-7---|
E--0-0---5-6-3-5--0--|    |--8-8---5-5-7-7-7---|
Schrei! Bis du du selbst bist
Schrei! Und wenn es das Letzte ist
Schrei! Auch wenn es weh tut
Schrei so laut du kannst!


e-------------------|    |--------------------|
C-------------------|    |--------------------|
G-------------------|    |--------------------|
D-------------------| x3 |--8-8---5-5-7-7-7---|
A----5--------------|    |--8-8---5-5-7-7-7---|
E--0-5---5-6-3-5—0--|    |--8-8---5-5-7-7-7---|
Schrei! Bis du du selbst bist
Schrei! Und wenn es das Letzte ist
Schrei! Auch wenn es weh tut
Schrei so laut du kannst 

Bass                        Guitar       
e--------------------------||--8-5-555555------|
C--------------------------||-------------6----|
G--------------------------||------------------|
D--------------------------||------------------|
A--------------------------||------------------|
E-0-0-00-00-0--8-8-88-88-8-||------------------|
Schrei! (Schrei so laut du kannst)

Bass                        Guitar       
e--------------------------||--8-5------5------|
C--------------------------||-------------6----|
G--------------------------||------------------|
D--------------------------||------------------|x3
A--------------------------||------------------|
E-0-0-00-00-0--8-8-88-88-8-||------------------|
Pass auf, Rattenfänger lauern überall
Verfolgen dich und greifen nach dir aus'm Hinterhalt
Versprechen dir alles wovon du nie geträumt hast


Bass                   Guitar       
e--------------------------||--8-5------5------|
C--------------------------||-------------6----|
G--------------------------||------------------|
D--------------------------||------------------|
A--------------------------||------------------|
E-0-0-00-00-0-----8-8-8----||------------------|
Und irgendwann ist es zu spät und dann brauchst du das




e-----------------x-x-|
C-----------------x-x-|
G-----------------x-x-|
D-55555555-888888-x-x-|
A-55555555-888888-x-x-|
E-55555555-888888-x-x-|
Nein - nein - nein - nananana nein
Nein - nein - nein - nananana nein



e--------------------|    |--------------------|
C--------------------|    |--------------------|
G--------------------|    |--------------------|
D--------------------| x3 |--8-8---5-5-7-7-7---|
A----5---------------|    |--8-8---5-5-7-7-7---|
E--0-0---5-6-3-5--0--|    |--8-8---5-5-7-7-7---|
Schrei! Bis du du selbst bist
Schrei! Und wenn es das Letzte ist
Schrei! Auch wenn es weh tut
Schrei so laut du kannst!

e--------------------|    |--------------------|
C--------------------|    |--------------------|
G--------------------|    |--------------------|
D--------------------| x3 |--8-8---5-5-7-7-7---|
A----5---------------|    |--8-8---5-5-7-7-7---|
E--0-0---5-6-3-5--0--|    |--8-8---5-5-7-7-7---|
Schrei! Bis du du selbst bist
Schrei! Und wenn es das Letzte ist
Schrei! Auch wenn es weh tut
Schrei so laut du kannst 

First Guitar          Second Guitar 
e------------|      |-5---5-5-6-3-5--|
C------------|      |---3------------|
G------------|      |----------------|
D--00000000--|      |----------------|
A--00000000--|      |----------------|
E--00000000--|      |----------------|
Schrei!

First Guitar                                          Second Guitar 4x
e---------------------------------------------------||-5---5-5-6-3-5--|
C---------------------------------------------------||---3------------|
G---------------------------------------------------||----------------|
D--88888888--1010101010101010--55555555--77777777---||----------------|
A--88888888--1010101010101010--55555555--77777777---||----------------|
E--88888888--1010101010101010--55555555--77777777---||----------------|
Zurück zum Nullpunkt - jetzt kommt eure Zeit
Lasst sie wissen, wer ihr wirklich seid

Guitar          
e-----------|
C-----------|
G-----------|
D-----------|x4
A-----------|
E--5-6-3-5--|
Schrei   Schrei
       ^(Schrei so laut du kannst)

Guitar                Distortion Guitar
e---------------|-----| |---------------|-----|
C---------------|-----| |---------------|-----|
G---------------|-----| |---------------|-----|
D---------------|-----| |---------------|-----|
A---------------|-----| |---------------|-----|
E--5-6-3-5-(x4)-|-0-2-| |--5-6-3-5-(x4)-|-0-2-|
Schrei  Schrei - Schrei - Schrei - 
       ^(Schrei so laut du kannst)

                          e--x--x--|
                          C--x--x--|
-Jetzt ist unsere Zeit... G--x--x--|
                          D--x--x--|
                          A--x--x--|
                          E--x--x--|


e--------------------|    |--------------------|
C--------------------|    |--------------------|
G--------------------|    |--------------------|
D--------------------| x3 |--8-8---5-5-7-7-7---|
A----5---------------|    |--8-8---5-5-7-7-7---|
E--0-0---5-6-3-5--0--|    |--8-8---5-5-7-7-7---|
Schrei! Bis du du selbst bist
Schrei! Und wenn es das Letzte ist
Schrei! Auch wenn es weh tut
Schrei so laut du kannst!

e--------------------|    |--------------------|
C--------------------|    |--------------------|
G--------------------|    |--------------------|
D--------------------| x3 |--8-8---5-5-7-7-7---|
A----5---------------|    |--8-8---5-5-7-7-7---|
E--0-0---5-6-3-5--0--|    |--8-8---5-5-7-7-7---|
Schrei! Bis du du selbst bist
Schrei! Und wenn es das Letzte ist
Schrei! Auch wenn es weh tut
Schrei so laut du kannst 


Und jetzt Schweig!

e---------------|    |--------------------|
C---------------|    |--------------------|
G---------------|    |--------------------|
D---------------| x6 |--8-8---5-5-7-7-7---|
A---------------|    |--8-8---5-5-7-7-7---|
E--5-6-3-5--0-0-|    |--8-8---5-5-7-7-7---|
Nein! Weil du du selbst bist
Nein! Und weil es das Letzte ist
Nein! Weil es so weh tut
Schrei so laut du kannst!


e---------------|    |----------------------|
C---------------|    |----------------------|
G---------------|    |----------------------|
D---------------| x6 |--8-8---5-5-7-7-7--0--|
A---------------|    |--8-8---5-5-7-7-7--0--|
E--5-6-3-5--0-0-|    |--8-8---5-5-7-7-7--0--|

Nein! - Nein! - Nein! - Nein! - Nein! - Nein!
Schrei so laut du kannst 

Schrei!!!
Tap to rate this tab
 
# A B C D E F G H I J K L M N O P Q R S T U V W X Y Z