Guitaretab - guitar tabs
Song name
# A B C D E F G H I J K L M N O P Q R S T U V W X Y Z

Tokio Hotel - Unendlichkeit tab

This is tabbed from the live show at Oberhausen. Listen to the song as a guide. If you 
using the Schrei CD as a guide, just play the same as below, but a half-step higher. If 
got any queries or corrections, feel free to send them to redbrickcity@hotmail.com

e|-------------------------------------------------|
b|-------------------------------------------------|
g|-------------------------------------------------|	Intro x2
d|-------------------------------------------------|	(Bass)
a|-------------------2-------2--2--2---------------|
E|---4--4--4---0--0--------------------------------|

e|-------------------------------------------------|
b|-------------------------------------------------|
g|-------------------------------------------------|	Verse 1 x10
d|-------------------------------------------------|	(Bass)
a|-------------------2-------2--2--2---------------|
E|---4--4--4---0--0--------------------------------|
[ Tab from: http://www.guitaretab.com/t/tokio-hotel/68814.html ]
e|-------------------------------------------------|
b|-------------------------------------------------|
g|-------------------------------4-----------------|	Guitar accom.
d|-----------6---------------2---4------4------4-4-|
a|-------6-------6-------2-------2---2-----2-------|
E|---4---------------0-----------------------------|

e|-------------------------------------------------|
b|-------------------------------------------------|
g|------------------------4--4--4----4--4--4-------|	Chorus
d|---6--6--6---2--2-------4--4--4----4--4--4-------|
a|---6--6--6---2--2-------2--2--2----2--2-2-------|
E|---4--4--4---0--0--------------------------------|

e|-------------------------------------------------|
b|-------------------------------------------------|
g|-------------------------------------------------|	Guitar Fill
d|-------------------------------------------------|
a|--6--6--6--7--7--7--9--9--9--7--77--------------|
E|-------------------------------------------------|

e|-------------------------------------------------|
b|-------------------------------------------------|
g|-------------------------------------------------|
d|-------------------------------------------------|
a|--6--66-7-6-7-6--6--4--4------------------------|
E|-------------------------------------------------|

Intro x4
Verse 1 x6  +  Guitar Accom. x4
Guitar Fill
Verse 1 x6  +  Guitar Accom. X4
Chorus x8
Guitar Fill x2
Chorus x8
Guitar Fill x2
Chorus until the end

Tabbed by V.H
Related for Unendlichkeit tab