Song name
# A B C D E F G H I J K L M N O P Q R S T U V W X Y Z

Tokio Hotel - Der Letzte Tag tab

Help us improve GuitareTab! Take a short survey!
I changed the whole tab  because i noticed that the song is played different

Tune down a half step
D#
A#
F#
C#
G#
D#


Intro
D#|------------------------------------|
A#|------------------------------------|
F#|------------------------------------|
C#|---4--4----5555555------------------|    2x
G#|--4--4-3-2-5555555------------------|
D#|-2--2------3333333------------------|

Verse
D#|------------------------------------|
A#|------------------------------------|
F#|------------------------------------|
C#|---4--4----5555555------------------|    4x
G#|--4--4-3-2-5555555------------------|
D#|-2--2------3333333------------------|

Bridge
D#|---------------------------------|
A#|---------------------------------|
F#|-4444-444-7-77-777-4444-77-7-777-|
C#|-4444-444-7-77-777-4444-77-7-777-|
G#|-2222-222-5-55-555-2222-55-5-555-|
D#|---------------------------------|

Chorus
D#|---------------------|
A#|---------------------|
F#|------7777-----------|
C#|-4444-7777-777-7-777-|       x3
G#|-4444-5555-777-7-777-|
D#|-2222------555-4-444-|

D#|----------------------------------|
A#|----------------------------------|
F#|-44444444-777777/8-44444444-77777-|
C#|-44444444-777777/8-44444444-77777-|
G#|-22222222-555555/6-22222222-55555-|
D#|----------------------------------|

D#|------------------------------------|
A#|------------------------------------|
F#|------------------------------------|
C#|---4--4----5555555------------------|    2x
G#|--4--4-3-2-5555555------------------|
D#|-2--2------3333333------------------|

Verse
D#|------------------------------------|
A#|------------------------------------|
F#|------------------------------------|
C#|---4--4----5555555------------------|    4x
G#|--4--4-3-2-5555555------------------|
D#|-2--2------3333333------------------|

Bridge
D#|---------------------------------|
A#|---------------------------------|
F#|-4444-444-7-77-777-4444-77-7-777-|
C#|-4444-444-7-77-777-4444-77-7-777-|
G#|-2222-222-5-55-555-2222-55-5-555-|
D#|---------------------------------|

Chorus
D#|---------------------|
A#|---------------------|
F#|------7777-----------|
C#|-4444-7777-777-7-777-|       x3
G#|-4444-5555-777-7-777-|
D#|-2222------555-4-444-|

D#|----------------------------------|
A#|----------------------------------|
F#|-44444444-777777/8-44444444-77777-|
C#|-44444444-777777/8-44444444-77777-|
G#|-22222222-555555/6-22222222-55555-|
D#|----------------------------------|

D#|---------------------|
A#|---------------------|
F#|------7-77-----------|
C#|-4-44-7-77-7-7-7-777-|       x3
G#|-4-44-5-55-7-7-7-777-|
D#|-2-22------5-5-4-444-|

D#|-----------------------------------------------------------|
A#|-----------------------------------------------------------|
F#|-11-11-11/1212/14-14-141414-141414\11--11-11/121212\11~9~--|
C#|-11-11-11/1212/14-14-141414-141414\11--11-11/121212\11~9~--|
G#|-9 -9 -9 /1010/12-12-121212-121212\9 --9 -9 /101010\9 ~7~--|
D#|-----------------------------------------------------------|

Bridge
D#|---------------------------------|
A#|---------------------------------|
F#|-4444-444-7-77-777-4444-77-7-777-|
C#|-4444-444-7-77-777-4444-77-7-777-|
G#|-2222-222-5-55-555-2222-55-5-555-|
D#|---------------------------------|

Chorus
D#|---------------------|
A#|---------------------|
F#|------7777-----------|
C#|-4444-7777-777-7-777-|       x3
G#|-4444-5555-777-7-777-|
D#|-2222------555-4-444-|

D#|----------------------------------|
A#|----------------------------------|
F#|-44444444-777777/8-44444444-77777-|
C#|-44444444-777777/8-44444444-77777-|
G#|-22222222-555555/6-22222222-55555-|
D#|----------------------------------|

D#|-------------------------------------------------------------|
A#|-------------------------------------------------------------|
F#|-11-11-11/1212/14-14-141414-141414\11--11-11/121212\11~9~999-|
C#|-11-11-11/1212/14-14-141414-141414\11--11-11/121212\11~9~999-|
G#|-9 -9 -9 /1010/12-12-121212-121212\9 --9 -9 /101010\9 ~7~777-|
D#|-------------------------------------------------------------|

D#|---------------------------------------------------------|
A#|---------------------------------------------------------|
F#|-11-11-11/1212/14-14-141414-141414\11--11-11/121212\11-9-|
C#|-11-11-11/1212/14-14-141414-141414\11--11-11/121212\11-9-|
G#|-9 -9 -9 /1010/12-12-121212-121212\9 --9 -9 /101010\9 -7-
D#|---------------------------------------------------------

D#|------------------------|
A#|------------------------|
F#|-44444444-77777777777-4-|
C#|-44444444-77777777777-4-|
G#|-22222222-55555555555-2-|
D#|------------------------|

Hope you enjoy it! :)


tabbed by Lisa S.
Related for Der Letzte Tag tab