Song name
# A B C D E F G H I J K L M N O P Q R S T U V W X Y Z

Tokio Hotel - Frei Im Freien Fall tab

Artist: Tokio Hotel
Song: Frei Im Freien Fall
Tabs by: kia

INTRO:

|---------|
|---------|
|----6----|
|-4--6--6-|
|-4--4--6-|
|-2-----4-| x2

VERSE:

[Meine Wohnung..]

|------------|---------------|
|------------|---------------|
|-------8--6-|-------8--6--4-|
|-6--4--8--6-|-6--4--8--6--4-|
|-6--4--6--4-|-6--4--6--4--2-|
|-4--2-------|-4--2----------|

[Zurück will ich nicht..]

|------------|------------|---|
|------------|------------|---|
|-------8--6-|-------8--6-|-6-|
|-6--4--8--6-|-6--4--8--6-|-6-|
|-6--4--6--4-|-6--4--6--4-|-4-|
|-4--2-------|-4--2-------|---|

CHORUS:

[Frei im freien Fall..]

|---------|
|---------|
|----6----|
|-4--6--6-|
|-4--4--6-|
|-2-----4-| x4

VERSE:

[1.000 Augen..]

|------------|------------|---|
|------------|------------|---|
|-------8--6-|-------8--6-|-6-|
|-6--4--8--6-|-6--4--8--6-|-6-|
|-6--4--6--4-|-6--4--6--4-|-4-|
|-4--2-------|-4--2-------|---|

CHORUS:

[Frei im freien Fall..]

|---------|
|---------|
|----6----|
|-4--6--6-|
|-4--4--6-|
|-2-----4-| x4

[Ich will nur frei sein..]

|------|
|------|
|----4-|
|-6--4-|
|-6--2-|
|-4----| x4

INTERLUDE:

[Lass mich fallen!]

|-------|-------|---------|
|-------|-------|---------|
|-------|-------|---------|
|-9-8-6-|-8-6-4-|-6-4-2-1-|
|-9-8-6-|-8-6-4-|-6-4-2-1-|
|-7-6-4-|-6-4-2-|-4-2-----| x4

[Frei im freien Fall..]

|---------|
|---------|
|----6----|
|-4--6--6-|
|-4--4--6-|
|-2-----4-| x4

CHORUS:

|---------|
|---------|
|----6----|
|-4--6--6-|
|-4--4--6-|
|-2-----4-| x8

END:

|-------|-------|---------|
|-------|-------|---------|
|-------|-------|---------|
|-9-8-6-|-8-6-4-|-6-4-2-1-|
|-9-8-6-|-8-6-4-|-6-4-2-1-|
|-7-6-4-|-6-4-2-|-4-2-----| x4

Baci - kia - se ve serve qlks -> chiara.azzini@hotmail.it - ROCK ON!
Tap to rate this tab
# A B C D E F G H I J K L M N O P Q R S T U V W X Y Z