Song name
# A B C D E F G H I J K L M N O P Q R S T U V W X Y Z

Tokio Hotel - Wo Sind Eure Hande tab

Intro X2

|------------------------------|
|------------------------------|
|------------------------------|
|-7-7-7-10-10-10-3-3-3-7-7-7-7-|
|-7-7-7-10-10-10-3-3-3-7-7-7-7-|
|-5-5-5-8--8--8--1-1-1-5-5-5-5-|

|------------------------|
|------------------------|
|------------------------|
|-7-7-7-10-10-10-3-3-7-5-|
|-7-7-7-10-10-10-3-3-7-5-|
|-5-5-5-8--8--8--1-1-5-3-| 

Couplet

|------------------------------|
|------------------------------|
|------------------------------|
|-7-7-7-10-10-10-3-3-3-7-7-7-7-|
|-7-7-7-10-10-10-3-3-3-7-7-7-7-|
|-5-5-5-8--8--8--1-1-1-5-5-5-5-| 

|------------------------|
|------------------------|
|------------------------|
|-7-7-7-10-10-10-3-3-7-5-|
|-7-7-7-10-10-10-3-3-7-5-|
|-5-5-5-8--8--8--1-1-5-3-| all this X3

|------------------------------|
|------------------------------|
|------------------------------|
|-7-7-7-10-10-10-3-3-3-7-7-7-7-|
|-7-7-7-10-10-10-3-3-3-7-7-7-7-|
|-5-5-5-8--8--8--1-1-1-5-5-5-5-|


|------------------------------------------------|
|------------------------------------------------|
|------------------------------------------------|
|-7-7-7-10-10-10-3-3-3-3-3-3-3-3-3-3-3-3-3-3-3-3-|
|-7-7-7-10-10-10-3-3-3-3-3-3-3-3-3-3-3-3-3-3-3-3-|
|-5-5-5-8--8--8--1-1-1-1-1-1-1-1-1-1-1-1-1-1-1-1-|

Voila ! Pour me contacter: in-musiik@hotmail.fr
Je suis francaise ^^
I am French
Lol !
Dites moi si il y a des erreurs :s
Tap to rate this tab
# A B C D E F G H I J K L M N O P Q R S T U V W X Y Z