Song name
# A B C D E F G H I J K L M N O P Q R S T U V W X Y Z

Tokio Hotel - Wo Sind Eure Hnde tab

Intro
e---------------------------------|
B-111---------1111111---------1---|
G-222-555-----2222222-555-----2-5-| 3X
D-222-555-333-2222222-333-333-2-5-|
A-----333-333---------333-333---3-|
E---------111-------------111-----|


Verse
e---------------------------------|
B-111---------1111111---------1---|
G-222-555-----2222222-555-----2-5-| 3X
D-222-555-333-2222222-333-333-2-5-|
A-----333-333---------333-333---3-|
E---------111-------------111-----|

e-----------------------------------------|
B-111---------1111111---------------------|
G-222-555-----2222222-555-----------------|
D-222-555-333-2222222-333-333333333333333-|
A-----333-333---------333-333333333333333-|
E---------111-------------111111111111111-|


Pre-chorus

Mein Kopf ist vol bis oben...
e-------------------------|
B-------------------------|
G-7777-999999-------------|
D-7777-999999-5555-777777-|
A-5555-777777-5555-777777-|
E-------------3333-555555-|

'Höre 1000 Diagnosen......Heute sind wir-
e-------------------|
B-------------------|
G-7777-999999-------|
D-7777-999999-5-----|
A-5555-777777-5-----|
E-------------3(355-| until chorus)

Chorus

-hier
e-----------------------------------------|
B-----------333333333---------------------|
G-444444444-----------444444444-----------|
D-444444444-222222222-444444444-555555555-|  x2
A-222222222-333333333-222222222-555555555-|
E-------------------------------333333333-|

Intro (1x)
Verse

e---------------------------------|
B-111---------1111111---------1---|
G-222-555-----2222222-555-----2-5-|
D-222-555-333-2222222-333-333-2-5-|
A-----333-333---------333-333---3-|
E---------111-------------111-----|

e-----------------------------------------|
B-111---------1111111---------------------|
G-222-555-----2222222-555-----------------|
D-222-555-333-2222222-333-333333333333333-|
A-----333-333---------333-333333333333333-|
E---------111-------------111111111111111-|

Pre-Chorus
Chorus

Heute sind wir hier-wo sind eure Hände-Die Welt bleibt vor der Tür-Wo sind eure Hände- enz..
e---------------------|
B---------------------|
G-444444444-----------|
D-444444444-555555555-|
A-222222222-555555555-|
E-----------333333333-|

Itro

xxLien
Tap to rate this tab
 
# A B C D E F G H I J K L M N O P Q R S T U V W X Y Z