Song name
# A B C D E F G H I J K L M N O P Q R S T U V W X Y Z

Tokio Hotel - Bers Ende Der Welt tab

Intro
E|-----------------------|
B|-----------------------|
G|-------------44444444--|
D|---6666-3333-44444444--|
A|---5555-2222-22222222--|
E|---6666-3333-----------|

E|-----------------------|
B|-----------------------|
G|-------------4444-6666-|
D|---6666-3333-4444-6666-|
A|---5555-2222-2222-4444-|
E|---6666-3333-----------|

Verse
E|-----------------------|
B|-----------------------|
G|-------------44444444--|
D|---6666-3333-44444444--|
A|---5555-2222-22222222--|
E|---6666-3333-----------|

E|-----------------------|
B|-----------------------|
G|-------------4444-6666-|
D|---6666-3333-4444-6666-|
A|---5555-2222-2222-4444-|
E|---6666-3333-----------|

E|------------------------------------|
B|------------------------------------|
G|-------------4444-6666-111111-222222|
D|---6666-3333-4444-6666-333333-444444|  play the verse 2x
A|---5555-2222-2222-4444-333333-444444|
E|---6666-3333------------------------|

Pre-Chorus
E|-----------------------|
B|-----------------------|
G|-----------------------| play the Pre-Corus 2x
D|------4444-------------|
A|------4444-------------|
E|-2222-2222-11111111----|

Chorus
E|-------------------------------------------------|
B|-------------------------------------------------|
G|---66-88----------66-88--------------------------| 
D|---66-88-99-4-444-66-88-9-4-11-11-11-11-88888888-|
A|---44-66-99-4-444-44-66-9-4-11-11-11-11-88888888-|
E|---------77-2-222-------7-2-9--9--9--9--66666666-|

E|---------------------------------------------------------------|
B|---------------------------------------------------------------|
G|---------------------------------------------------------------|
D|-88888888-9999999-11-88888888-99999999-11-11-11-11-11-11-11-11-|
A|-88888888-9999999-11-88888888-99999999-9--9--9--9--9--9--9--9--|
E|-66666666-7777777-9--66666666-77777777-9--9--9--9--9--9--9--9--|

E|----------------|
B|----------------|
G|----------------|
D|-8-8-8-88888888-|
A|-8-8-8-88888888-|
E|-6-6-6-66666666-|

Verse 2
E|-----------------------|
B|-----------------------|
G|-------------44444444--|
D|---6666-3333-44444444--|
A|---5555-2222-22222222--|
E|---6666-3333-----------|

E|-----------------------|
B|-----------------------|
G|-------------4444-6666-|
D|---6666-3333-4444-6666-|
A|---5555-2222-2222-4444-|
E|---6666-3333-----------|

E|------------------------------------|
B|------------------------------------|
G|-------------4444-6666-111111-222222|
D|---6666-3333-4444-6666-333333-444444|  play the verse  2x
A|---5555-2222-2222-4444-333333-444444|
E|---6666-3333------------------------|

Pre-Chorus
E|-----------------------|
B|-----------------------|
G|-----------------------| play the Pre-Corus 2x
D|------4444-------------|
A|------4444-------------|
E|-2222-2222-11111111----|

Chorus
E|----------------------------------------|
B|----------------------------------------|
G|---66-88----------66-88-----------------| 
D|---66-88-99-4-444-66-88-9-4-11-11-11-11-|
A|---44-66-99-4-444-44-66-9-4-11-11-11-11-|
E|---------77-2-222-------7-2-9--9--9--9--|

E|---------------------------------------------------------------|
B|---------------------------------------------------------------|
G|---------------------------------------------------------------|
D|-88888888-9999999-11-88888888-99999999-11-11-11-11-11-11-11-11-|
A|-88888888-9999999-11-88888888-99999999-9--9--9--9--9--9--9--9--|
E|-66666666-7777777-9--66666666-77777777-9--9--9--9--9--9--9--9--|

E|----------------|
B|----------------|
G|----------------|
D|-8-8-8-88888888-|
A|-8-8-8-88888888-|
E|-6-6-6-66666666-|

Interlude
E|-----------------|
B|-----------------|
G|-----------------|
D|-----------------| play the interlude 6x
A|-33-44-55-333-44-|
E|-----------------|

E|----------------------------|
B|----------------------------|
G|----------------------------|
D|-99999999-11-11-11-88888888-|
A|-99999999-9--9--9--88888888-|
E|-77777777-9--9--9--66666666-|

verlager dein gewicht...
E|-----------------------|
B|-----------------------|
G|-----------------------|
D|-999-11-11-11-88888888-| 
A|-999-9--9--9--88888888-|
E|-777-9--9--9--66666666-| 

E|------------------------|
B|------------------------|
G|------------------------|
D|-999-11-11-11-8888-9999-|
A|-999-11-11-11-8888-9999-|
E|-777-9--9--9--6666-7777-|

ACHTUNG FERTIG LOS UND LAUF!

Chorus
E|---------------------------|
B|---------------------------|
G|-666-66-88-----------------|
D|-666-66-88-9-4-11-11-11-11-|
A|-444-44-66-9-4-9--9--9--9--|
E|-----------7-2-9--9--9--9--|

E|---------------------------------------------------------------|
B|---------------------------------------------------------------|
G|---------------------------------------------------------------|
D|-88888888-9999999-11-88888888-99999999-11-11-11-11-11-11-11-11-|
A|-88888888-9999999-11-88888888-99999999-9--9--9--9--9--9--9--9--|
E|-66666666-7777777-9--66666666-77777777-9--9--9--9--9--9--9--9--|

E|----------|
B|----------|
G|----------|
D|-88888888-|
A|-88888888-|
E|-66666666-|

Achtung fertig los und lauf...
E|----------------------------------------|
B|----------------------------------------|
G|---66-88----------66-88-----------------| 
D|---66-88-99-4-444-66-88-9-4-11-11-11-11-|
A|---44-66-99-4-444-44-66-9-4-11-11-11-11-|
E|---------77-2-222-------7-2-9--9--9--9--|

E|---------------------------------------------------------------|
B|---------------------------------------------------------------|
G|---------------------------------------------------------------|
D|-88888888-9999999-11-88888888-99999999-11-11-11-11-11-11-11-11-|
A|-88888888-9999999-11-88888888-99999999-9--9--9--9--9--9--9--9--|
E|-66666666-7777777-9--66666666-77777777-9--9--9--9--9--9--9--9--|

E|----------------|
B|----------------|
G|----------------|
D|-8-8-8-88888888-|
A|-8-8-8-88888888-|
E|-6-6-6-66666666-|

play the intro again...
E|-----------------------|
B|-----------------------|
G|-------------44444444--|
D|---6666-3333-44444444--|
A|---5555-2222-22222222--|
E|---6666-3333-----------|

E|-----------------------|
B|-----------------------|
G|-------------4444-6666-|
D|---6666-3333-4444-6666-| play the intro 2x
A|---5555-2222-2222-4444-|
E|---6666-3333-----------|

E|-----------------------|
B|-----------------------|
G|-------------44444444--|
D|---6666-3333-44444444--|
A|---5555-2222-22222222--|
E|---6666-3333-----------|

and then on the end:
E|----------|
B|----------|
G|----------|
D|-------44-| 
A|-33-44-44-|
E|-------22-|

I hope that you like my tab ;)
please give comments!
.xxx. Lauren from The Netherlands
Tap to rate this tab
# A B C D E F G H I J K L M N O P Q R S T U V W X Y Z