Song name
# A B C D E F G H I J K L M N O P Q R S T U V W X Y Z

Tokio Hotel - Vergessene Kinder tab

This is exactly like Tom Kaulitz play the intro. U can see it on the TH live in europe dvd.


e:-----------------|-----------------|------------------|-----------------|
B:-----------------|-----------------|------------------|-----------------|
G:-----7---7-------|-----7---7-------|----7---7---------|----7----7-------|
D:--5---5----------|--5---5----------|------------------|-----------------|
A:-----------------|-----------------|--6---6-----------|--6----5---------|
E:-----------------|-----------------|------------------|-----------------|

[verse]

'N ganz normaler tag
Die Strasse wird zum Grab
Die Spuren sind verwischt
Ne Suche gibt es nicht
Kalt ist die Nacht
Wer friert, ist zu schwach 

e:-----------------|-----------------|------------------|-----------------|
B:-----------------|-----------------|------------------|-----------------|
G:-----7---7-------|-----7---7-------|----7---7---------|----7----7-------|
D:--5---5----------|--5---5----------|------------------|-----------------| 3x
A:-----------------|-----------------|--6---6-----------|--6----5---------|
E:-----------------|-----------------|------------------|-----------------|

Niemand wird sie zhln
Niemand hat sie gesehn
e:-----------------|-----------------|------------------|-----------------|
B:-----------------|-----------------|------------------|----------6------|
G:-----7---7-------|-----7---7-------|----7---7---------|----7------------|
D:--5---5----------|--5---5----------|------------------|-----------------|
A:-----------------|-----------------|--6---6-----------|--6----5---------|
E:-----------------|-----------------|------------------|-----------------|

Tap to rate this tab
# A B C D E F G H I J K L M N O P Q R S T U V W X Y Z