Song name
# A B C D E F G H I J K L M N O P Q R S T U V W X Y Z

Tokio Hotel - Through The Monsoon tab

#----------------------------------PLEASE NOTE---------------------------------#
#This file is the author's own work and represents their interpretation of the #
#song. You may only use this file for private study, scholarship, or research. #
#------------------------------------------------------------------------------##


Hello everybody,
I'm here to give you the tabs for the beautiful song by Tokio Hotel:
THROUGH THE MONSOON.

Attention: Notice the various notes I wrote, the timing in this song is very important.
* The tempo of this song is 112.

         ___    |||
|  |    |       |||
|--|    |__     |||
|  |ave |   un  ooo



If you want to comment or correct me, my email address is:
vytrous@gmail.com



Tuning: Standard at Drop D.

Gtr I (D# G# C# F# A# D#) - 'Acoustic'
Gtr II (D# G# C# F# A# D#) - 'Electric Clean'
Gtr III (D# G# C# F# A# D#) - 'Overdriven'

    Q=112
   4/4
    Gtr I	Intro and Verse 1
    E E E E E E E E  E E E E E E E E  5x E E E E E E E E E E E E E E E E
||-------------------|------------------||---------------------------------|
||o------------------|-----------------o||---------------------------------|
||-------------------|------------------||---------------------------------|
||--6-----7-----6----|-2-----3-----3p2--||-7-----7-----7---5-----5-----5---|
||o-7-7-7-7-7-7-7-7\-|-3-3-3-3-3-3-3-3-o||-7-----7-----7---5-----5-----5---|
||-------------------|------------------||-5-5-5-5-5-5-5-5-3-3-3-3-3-3-3-3-|


    Gtr I	Verse 2
    E E E E E E E E    E E E E E E E E  3x E E E E E E E E E E E E E E E E
||-------------------|------------------||---------------------------------|
||o------------------|-----------------o||---------------------------------|
||-------------------|------------------||---------------------------------|
||--6-----7-----6----|-2-----3-----3p2--||-7-----7-----7---7-----7-----7---|
||o-7-7-7-7-7-7-7-7\-|-3-3-3-3-3-3-3-3-o||-5-5-5-5-5-5-5-5-4-4-4-4-4-4-4-4-|
||-------------------|------------------||---------------------------------|


  Gtr II	Chorus 1
  E E E E E E E E   E E E E E E E E   E E E E E E E E   E E E E E E E E
|-3-----3-----3---|-2-----2-----2---|-3-----3-----3---|-2-----2-----2---|
|---3-----3-----3-|---3-----3-----3-|---3-----3-----3-|---3-----3-----3-|
|-----4-----4-----|-----2-----2-----|-----4-----4-----|-----2-----2-----|
|-----------------|-----------------|-----------------|-----------------|
|-----------------|-----------------|-----------------|-----------------|
|-----------------|-----------------|-----------------|-----------------|


  E E E E E E E E   E E E E E E E E   E E E E E E E E   E E E E E E E E
|-3-----3-----3---|-2-----2-----2---|-2-----2-----2---|-3-----3-----3---|
|---3-----3-----3-|---3-----3-----3-|---3-----3-----3-|---3-----3-----3-|
|-----4-----4-----|-----2-----2-----|-----2-----2-----|-----4-----4-----|
|-----------------|-----------------|-----------------|-----------------|
|-----------------|-----------------|-----------------|-----------------|
|-----------------|-----------------|-----------------|-----------------|

  End of Chorus 1	Alternative Positions
  E E E E E E E E      E E E E E E E E   E E E E E E E E
|-2-----2-----2-----||-----------------|--------------------|
|---3-----3-----3---||-8-----8-----8---|-7-----7-----7------|
|-----2-----2-------||---7-----7-----7-|---7-----7-----7----|
|-------------------||-----9-----8-----|-----7-----7--------|
|-------------------||-----------------|--------------------|
|-------------------||-----------------|--------------------|


    Gtr I		Verse 3
    E E E E E E E E  E E E E E E E E  5x E E E E E E E E  E E E E E E E E
||------------------------------------||----------------------------------|
||o----------------------------------o||----------------------------------|
||------------------------------------||----------------------------------|
||--6-----7-----6----2-----3-----3p2--||-7-----7-----7----5-----5-----5---|
||o-7-7-7-7-7-7-7-7\-3-3-3-3-3-3-3-3-o||-7-----7-----7----5-----5-----5---|
||------------------------------------||-5-5-5-5-5-5-5-5--3-3-3-3-3-3-3-3-|


    Gtr I		Verse 4
    E E E E E E E E  E E E E E E E E  3x E E E E E E E E   E E E E E E E E
||------------------------------------||-----------------|-----------------|
||o----------------------------------o||-----------------|-----------------|
||------------------------------------||-----------------|-----------------|
||--6-----7-----6----2-----3-----3p2--||-7-----7-----7---|-7-----7-----7---|
||o-7-7-7-7-7-7-7-7\-3-3-3-3-3-3-3-3-o||-5-5-5-5-5-5-5-5-|-4-4-4-4-4-4-4-4-|
||------------------------------------||-----------------|-----------------|


    Gtr II	Verse 3 - Along Gtr I above at verse 3
    Q.   W 
||----------------------||----|
||o-5------------------o||----|
||-------4--------------||----|
||----------------------||----|
||o--------------------o||----|
||----------------------||----|


  Gtr II	Verse 4 - Along Gtr I above at verse 4
   Q Q Q Q Q Q Q Q Q Q Q Q Q Q Q Q Q Q Q Q Q Q Q Q Q H  Q Q H    H
|-------------------------------------------------------------------|
|-/5-5-5-5-5-5-5-5-5-5-5-5-5-5-5-5-5-5-5-5-5-5-5-5-3-3--3-2-2----2--|
|-------------------------------------------------------------------|
|-------------------------------------------------------------------|
|-------------------------------------------------------------------|
|-------------------------------------------------------------------|


  Gtr II	Chorus 2
  E E E E E E E E   E E E E E E E E   E E E E E E E E   E E E E E E E E
|-3-----3-----3---|-2-----2-----2---|-3-----3-----3---|-2-----2-----2---|
|---3-----3-----3-|---3-----3-----3-|---3-----3-----3-|---3-----3-----3-|
|-----4-----4-----|-----2-----2-----|-----4-----4-----|-----2-----2-----|
|-----------------|-----------------|-----------------|-----------------|
|-----------------|-----------------|-----------------|-----------------|
|-----------------|-----------------|-----------------|-----------------|


  Gtr II
  E E E E E E E E   E E E E E E E E   E E E E E E E E   E E E E E E E E
|-3-----3-----3---|-2-----2-----2---|-2-----2-----2---|-3-----3-----3---|
|---3-----3-----3-|---3-----3-----3-|---3-----3-----3-|---3-----3-----3-|
|-----4-----4-----|-----2-----2-----|-----2-----2-----|-----4-----4-----|
|-----------------|-----------------|-----------------|-----------------|
|-----------------|-----------------|-----------------|-----------------|
|-----------------|-----------------|-----------------|-----------------|


  Gtr II
  E E E E E E E E   E E E E E E E E   E E E E E E E E   E E E E E E E E
|-3-----3-----3---|-2-----2-----2---|-3-----3-----3---|-2-----2-----2---|
|---3-----3-----3-|---3-----3-----3-|---3-----3-----3-|---3-----3-----3-|
|-----4-----4-----|-----2-----2-----|-----4-----4-----|-----2-----2-----|
|-----------------|-----------------|-----------------|-----------------|
|-----------------|-----------------|-----------------|-----------------|
|-----------------|-----------------|-----------------|-----------------|


  Gtr II		End of Chorus 2
  E E E E E E E E   E E E E E E E E
|-3-----3-----3---|-2-----2-----2------|
|---3-----3-----3-|---3-----3-----3----|
|-----4-----4-----|-----2-----2--------|
|-----------------|--------------------|
|-----------------|--------------------|
|-----------------|--------------------|


    Gtr II-This is Gtr II after paddle to Distortion   C Part - A
    E E E E E E E E E E E E E E E E  5x E E E E E E E E E E E E E E E E E
||-----------------------------------||-----------------------------------|
||o---------------------------------o||-----------------------------------|
||-----------------------------------||-----------------------------------|
||--7-7-7-6-6-6-6-6-3-3-3-2-2-2-2-2--||-7-7-7-6-6-6-6-6-3-3-3-3-3-3-3-3-2-|
||o-x-x-x-x-x-x-x-x-x-x-x-x-x-x-x-x-o||-x-x-x-x-x-x-x-x-x-x-x-x-x-x-x-x-x-|
||--5-5-5-4-4-4-4-4-1-1-1-0-0-0-0-0--||-5-5-5-4-4-4-4-4-1-1-1-1-1-1-1-1-0-|


    Gtr I	C Part - B
    Q.   Q.   Q    W  3x W
||--0----2----0--|-0--||------|
||o-0----0----0--|-1-o||------|
||--0----0----0--|-0--||-0----|
||--2------------|-2--||-2----|
||o--------------|-2-o||-2----|
||---------------|----||-0----|


  Gtr III		Chorus 3
  E E E E E E E E   E E E E E E E E   E E E E E E E E   E E E E E E E E
|-----------------|-----------------|-----------------|-----------------|
|-----------------|-----------------|-----------------|-----------------|
|-5-5-5-5-5-5-5-5-|-7-7-7-7-7-7-7-7-|-----------------|-4-4-4-4-4-4-4-4-|
|-5-5-5-5-5-5-5-5-|-7-7-7-7-7-7-7-7-|-2-2-2-2-2-2-2-2-|-4-4-4-4-4-4-4-4-|
|-3-3-3-3-3-3-3-3-|-5-5-5-5-5-5-5-5-|-2-2-2-2-2-2-2-2-|-2-2-2-2-2-2-2-2-|
|-----------------|-----------------|-0-0-0-0-0-0-0-0-|-----------------|


  E E E E E E E E   E E E E E E E E   E E E E E E E E   E E E E E E E E
|-----------------|-----------------|-----------------|-----------------|
|-----------------|-----------------|-----------------|-----------------|
|-5-5-5-5-5-5-5-5-|-7-7-7-7-7-7-7-7-|-4-4-4-4-4-4-4-4-|-----------------|
|-5-5-5-5-5-5-5-5-|-7-7-7-7-7-7-7-7-|-4-4-4-4-4-4-4-4-|-2-2-2-2-2-2-2-2-|
|-3-3-3-3-3-3-3-3-|-5-5-5-5-5-5-5-5-|-2-2-2-2-2-2-2-2-|-2-2-2-2-2-2-2-2-|
|-----------------|-----------------|-----------------|-0-0-0-0-0-0-0-0-|


  E E E E E E E E   E E E E E E E E   E E E E E E E E   E E E E E E E E
|-----------------|-----------------|-----------------|-----------------|
|-----------------|-----------------|-----------------|-----------------|
|-5-5-5-5-5-5-5-5-|-7-7-7-7-7-7-7-7-|-----------------|-4-4-4-4-4-4-4-4-|
|-5-5-5-5-5-5-5-5-|-7-7-7-7-7-7-7-7-|-2-2-2-2-2-2-2-2-|-4-4-4-4-4-4-4-4-|
|-3-3-3-3-3-3-3-3-|-5-5-5-5-5-5-5-5-|-2-2-2-2-2-2-2-2-|-2-2-2-2-2-2-2-2-|
|-----------------|-----------------|-0-0-0-0-0-0-0-0-|-----------------|

					Start Here "C Part - C" (At the bottom)
  E E E E E E E E   E E E E E E E E   E E E E E E E E   E E E E E E E E
|-----------------|-----------------|-----------------|-----------------|
|-----------------|-----------------|-----------------|-----------------|
|-5-5-5-5-5-5-5-5-|-7-7-7-7-7-7-7-7-|-----------------|-5-5-5-5-5-5-5-5-|
|-5-5-5-5-5-5-5-5-|-7-7-7-7-7-7-7-7-|-2-2-2-2-2-2-2-2-|-5-5-5-5-5-5-5-5-|
|-3-3-3-3-3-3-3-3-|-5-5-5-5-5-5-5-5-|-2-2-2-2-2-2-2-2-|-3-3-3-3-3-3-3-3-|
|-----------------|-----------------|-0-0-0-0-0-0-0-0-|-----------------|


  E E E E E E E E   E E E E E E E E   E E E E E E E E   E E E E E E E E
|-----------------|-----------------|-----------------|-----------------|
|-----------------|-----------------|-----------------|-----------------|
|-----------------|-5-5-5-5-5-5-5-5-|-----------------|-5-5-5-5-5-5-5-5-|
|-2-2-2-2-2-2-2-2-|-5-5-5-5-5-5-5-5-|-2-2-2-2-2-2-2-2-|-5-5-5-5-5-5-5-5-|
|-2-2-2-2-2-2-2-2-|-3-3-3-3-3-3-3-3-|-2-2-2-2-2-2-2-2-|-3-3-3-3-3-3-3-3-|
|-0-0-0-0-0-0-0-0-|-----------------|-0-0-0-0-0-0-0-0-|-----------------|


  E E E E E E E E   E E E E E E Q
|-----------------|------------------|
|-----------------|------------------|
|-----------------|-5-5-x-5-x-x-5----|
|-2-2-2-2-2-2-2-2-|-5-5-x-5-x-x-5----|
|-2-2-2-2-2-2-2-2-|-3-3-x-3-x-x-3----|
|-0-0-0-0-0-0-0-0-|------------------|


    Gtr II-This is Gtr II after paddle to distortion	C Part - C
                                                                PM
    E E E E E E E E   E E E E E E E E  3x E E E E E E E E   E E E
||------------------|------------------||-----------------|----------|
||o-----------------|-----------------o||-----------------|----------|
||------------------|------------------||-----------------|----------|
||--7-7-7-6-6-6-6-6-|-3-3-3-2-2-2-2-2--||-7-7-7-6-6-6-6-6-|-3-3-x----|
||o-x-x-x-x-x-x-x-x-|-x-x-x-x-x-x-x-x-o||-x-x-x-x-x-x-x-x-|-x-x-x----|
||--5-5-5-4-4-4-4-4-|-1-1-1-0-0-0-0-0--||-5-5-5-4-4-4-4-4-|-1-1-x----|






***************************************************************************************
* Generated using Power Tab Editor by Brad Larsen - http://powertab.guitarnetwork.org *
***************************************************************************************
Tap to rate this tab
 
# A B C D E F G H I J K L M N O P Q R S T U V W X Y Z