Song name
# A B C D E F G H I J K L M N O P Q R S T U V W X Y Z

Tokio Hotel - Wir Sterben Niemals Aus tab

Tabbed by Lisa S. from Germany. :)

Please vote and leave a comment ^_^

Tune a half step down
D#
A#
F#
C#
G#
D#

Intro
D#|------------------------------|
A#|------------------------------|
F#|-7-9-77-7-777-5-7-5---5-7---5-|
C#|-0-0-00-0-000-0-0-0-7-7-7-7-0-|    x2
G#|--------------------0-----0---|
D#|------------------------------|

Vers
D#|------------------------------|
A#|------------------------------|
F#|-7-9-77-7-777-5-7-5---5-7---5-|
C#|-0-0-00-0-000-0-0-0-7-7-7-7-0-|    x3
G#|--------------------0-----0---|
D#|------------------------------|

D#|---------------------|
A#|---------------------|
F#|-77777777-555-5-555--|
C#|-77777777-555-5-555--|
G#|-55555555-333-2-222--|
D#|---------------------|

Chorus
D#|---------------------|
A#|---------------------|
F#|-----5-555-----------|   x3
C#|-2-2-5-555-555-5-555-|
G#|-0-0-3-333-555-5-555-|
D#|-----------333-2-222-|

D#|----------------|
A#|----------------|
F#|----------------|
C#|-33333333-5-5-5-|
G#|-33333333-5-5-5-|
D#|-11111111-3-3-2-|

Intro
D#|------------------------------|
A#|------------------------------|
F#|-7-9-77-7-777-5-7-5---5-7---5-|
C#|-0-0-00-0-000-0-0-0-7-7-7-7-0-|    x2
G#|--------------------0-----0---|
D#|------------------------------|

Vers
D#|------------------------------|
A#|------------------------------|
F#|-7-9-77-7-777-5-7-5---5-7---5-|
C#|-0-0-00-0-000-0-0-0-7-7-7-7-0-|    x3
G#|-------------------0------0---|
D#|------------------------------|

D#|--------------------|
A#|--------------------|
F#|-77777777-555-5-555-|
C#|-77777777-555-5-555-|
G#|-55555555-333-2-222-|
D#|--------------------|

Chorus
D#|---------------------|
A#|---------------------|
F#|-----5-555-----------|   x3
C#|-2-2-5-555-5-5-5-555-|
G#|-0-0-3-333-5-5-5-555-|
D#|-----------3-3-2-222-|

D#|--------------------|
A#|--------------------|
F#|--------------------|
C#|-33333333-5-5-5-555-|
G#|-33333333-5-5-5-555-|
D#|-11111111-3-3-2-222-|

Bridge
D#|--------------------|
A#|--------------------|
F#|-----5-555-77-7-777-|
C#|-2-2-3-333-55-4-444-| x2
G#|-0-0----------------|
D#|--------------------|

D#|------------------------------|
A#|------------------------------|
F#|------5555-555-7777-7777-7777-|
C#|-2222-3333-333-5555-5555-4444-| x2
G#|-0000-------------------------|
D#|------------------------------|

D#|------------------|
A#|------------------|
F#|-----5555-77-7777-|
C#|-2-2-3333-55-4444-|  x2
G#|-0-0--------------|
D#|------------------|

D#|---------------------|
A#|---------------------|
F#|-----5-555-----------|   x3
C#|-2-2-5-555-5-5-5-555-|
G#|-0-0-3-333-5-5-5-555-|
D#|-----------3-3-2-222-|

D#|-------------------|
A#|-------------------|
F#|-777---------------|
C#|-777-7-777-333-555-|
G#|-555-7-777-333-555-|
D#|-----5-555-111-333-|

D#|----------------|
A#|----------------|
F#|----------------|
C#|-33333333-5-5-5-|
G#|-33333333-5-5-5-|
D#|-11111111-3-3-2-|

Chorus
D#|---------------------|
A#|---------------------|
F#|-----5-555-----------|    x3
C#|-2-2-5-555-5-5-5-555-|
G#|-0-0-3-333-5-5-5-555-|
D#|-----------3-3-2-222-|

D#|--------------------|
A#|--------------------|
F#|--------------------|
C#|-33333333-5-5-5-555-|
G#|-33333333-5-5-5-555-|
D#|-11111111-3-3-2-222-|

D#|----------------|
A#|----------------|
F#|----------------|
C#|-33333333-5-5-5-|
G#|-33333333-5-5-5-|
D#|-11111111-3-3-2-|

Hope you enjoy :)
Tap to rate this tab
# A B C D E F G H I J K L M N O P Q R S T U V W X Y Z