Song name
# A B C D E F G H I J K L M N O P Q R S T U V W X Y Z

Tokio Hotel - In Die Nacht tab

Dornenreich - In die Nacht
--------------

Clean Intro:

 |Guitar 1
E|---------------------------------|---------------------------------|
H|-------4-------4-------4-------4-|-------3-4-3-----------3-------3-|
G|-----5---5---5-------5---5---5---|-------------5-4-----4---4---4---|
D|---5-------5-------5-------5-----|-----5-------------4-------4-----|
A|-3---------------3---------------|-----------------2---------------|
E|---------------------------------|-4-3-----------------------------|

 |Guitar 2 
E|---|---------------------------------|------------------------------------|
H|---|---------------------------------|------------------------------------|
G|-7>|-8-8-8-8>7-7-7-7>8-8-8-8>7-7-7-8>|-10-10-10-10>8-8-8-7>5-5-5-5>4-4-47>|
D|---|---------------------------------|------------------------------------|
A|---|---------------------------------|------------------------------------|
E|---|---------------------------------|------------------------------------|

 |Guitar 3
E|-------------|-------------------------------------|
H|-------------|---------------9-8---9-8----9-8-9----|
G|-------------|------8---10-------------------------|
D|-------------|-10----------------------------------|
A|-------------|-------------------------------------|
E|-------------|-------------------------------------|

 |
E|-11---10-----|-------------------------------------|
H|-------------|---------------9-8---9-8----9-8-9----|
G|-------------|------8---10-------------------------|
D|-------------|-10----------------------------------|
A|-------------|-------------------------------------|
E|-------------|-------------------------------------|

 |
E|-8---10------|-------------------------------------|
H|-------------|---------------9-8---9-8----9-8-9----|
G|-------------|------8---10-------------------------|
D|-------------|-10----------------------------------|
A|-------------|-------------------------------------|
E|-------------|-------------------------------------|


Riff 1: 

 |Guitar 1
E|---------------------------------|
H|---------------------------------|
G|---------------------------------|
D|---------------------------------|
A|-3-3-3-3-3-3-3-3-----------------|
E|-----------------4-4-6-6-4-4-3-3-|
 |
 |Guitar 2
E|---------------------------------|
H|---------------------------------|
G|---------5-5-4-4-5-5-7-7-5-5-4-4-|
D|-----5-5-------------------------|
A|-3-3-----------------------------|
E|---------------------------------|

"Vom Tag enfernt"
 |Guitar 1
E|---------------------------------|---------------------------------|
H|---------------------------------|---------------------------------|
G|---------------------------------|---------------------------------|
D|-------------6-6-5-5-5-5---------|---------------------------------|
A|-3-3-3-3-3-3-------------6-6-6-6-|-3-3-3-3-3-3-3-3-----------------|
E|---------------------------------|-----------------4-4-6-6-4-4-3-3-|
 |
 |Guitar 2
E|---------------------------------|---------------------------------|
H|---------------------------------|---------------------------------|
G|-------------5-5-4-4-4-4---------|---------5-5-4-4-5-5-7-7-5-5-4-4-|
D|---------5-5-------------5-5-5-5-|-----5-5-------------------------|
A|-3-3-3-3-------------------------|-3-3-----------------------------|
E|---------------------------------|---------------------------------|

 |Guitar 1
E|---------------------------------|-----------------------------------|
H|---------------------------------|-----------------------------------|
G|---------------------------------|-5-5-5-5-8-8-5-5-7-7-7-7-10-10-7-7-|
D|-------------6-6-5-5-5-5---------|-6-6-6-6-6-6-6-6-8-8-8-8-8--8--8-8-|
A|-3-3-3-3-3-3-------------6-6-6-6-|-----------------------------------|
E|---------------------------------|-----------------------------------|
 |
 |Guitar 2
E|---------------------------------|---------------------------------|
H|---------------------------------|---------------------------------|
G|-------------5-5-4-4-4-4---------|---------5-5-4-4-5-5-7-7-5-5-4-4-|
D|---------5-5-------------5-5-5-5-|-----5-5-------------------------|
A|-3-3-3-3-------------------------|-3-3-----------------------------|
E|---------------------------------|---------------------------------|

Play 4 Times


Riff 2:
"Entfesselt sei, was Licht gebunden"

 |Guitar 1
E|-------------------------|-------------------------|
H|-------------------------|-------------------------|
G|-------------------5-5-5-|-3-3-3-------------------|
D|---------5-3-5-5-5-------|-------5-5-5-------------|
A|-3-3-3-3-----------------|-------------6-6-6-5-5-5-|
E|-------------------------|-------------------------|
 |
 |Guitar 2
E|-------------------------|-------------------------|
H|-------------------------|-------------------------|
G|-5-----------------------|-8----------3------------|
D|-5-----------------------|-8----------3------3-3-3-|
A|-3-----------------------|-6----------1------1-1-1-|
E|-------------------------|-------------------------|

"alles Leid sei nun verwun-"
 |Guitar 1
E|-------------------------|-------------------------|
H|-------------------------|-------------------------|
G|-------------------5-5-5-|-7-7-7-------------------|
D|---------5-3-5-5-5-------|-------8-8-8-5-5-5-5-5-5-|
A|-3-3-3-3-----------------|-------------------------|
E|-------------------------|-------------------------|
 |
 |Guitar 2
E|-------------------------|-------------------------|
H|-------------------------|-------------------------|
G|-5-----------------------|-8-----------------------|
D|-5-----------------------|-8-----------5-----------|
A|-3-----------------------|-6-----\-----5-----------|
E|-------------------------|-------------3-----------|

Then Guitar 2 plays:

"-deeeen."
 |Guitar 2
E|-------------------------|-------------------------|
H|-------------------------|-------------------------|
G|-------------------------|-------------------------|
D|-------------------5-5-5-|-------------------3-3-3-|
A|-3-3-3-3-3-3-3-3-3-------|-6-6-6-6-6-6-1-1-1-------|
E|-------------------------|-------------------------|

 |
E|-------------------------|-------------------------|
H|-------------------------|-------------------------|
G|-------------------------|-------------------------|
D|-------------------5-5-5-|-3-3-3-------------------|
A|-3-3-3-3-3-3-3-3-3-------|-------6-6-6-------5-5-5-|
E|-------------------------|-------------3-3-3-------|

Riff 2 3x again

Riff 3:
Gitarre 2 plays nothing

 |Guitar 1
E|-------------------------|-------------------------|
H|-------------------------|-------------------------|
G|-------------------------|-------------------------|
D|-------5-5---------------|-------5-5---------------|
A|-3-3-3-----6-3-3-3-3-3-3-|-3-3-3-----6-3-3-3-3-3-3-|
E|-------------------------|-------------------------|

 |Guitar 1
E|-------------------------|-------------------------|
H|-------------------------|-------------------------|
G|-------------------------|-------------------------|
D|-6-6-6-5-5---------------|-------5-5---4-4-4-------|
A|-----------6-3-3-3-3-3-3-|-3-3-3-----6-------6-6-5-|
E|-------------------------|-------------------------|

 |Guitar 1
E|-------------------------|-------------------------|
H|-------------------------|-------------------------|
G|-------------------------|-------------------------|
D|-------5-5---------------|-------5-5---------------|
A|-3-3-3-----6-3-3-3-3-3-3-|-3-3-3-----6-3-3-3-3-3-3-|
E|-------------------------|-------------------------|

 |Guitar 1
E|---------------------------|-------------------------|
H|---------------------------|-------------------------|
G|---------------------------|-------------9-9-9-------|
D|-------9-9-9-9-9-9-7-------|-------7-7-7-------7-7-7-|
A|-7-7-7---------------10-87-|-8-8-8-------------------|
E|---------------------------|-------------------------|

Everything 3 times


Riff 4:

 |Guitar 1
E|---------------------------------|---------------------------------|
H|---------------------------------|---------------------------------|
G|-------------------------5---5-5-|---------------------------------|
D|-4-4-4-4-4-4-4-4-4-4-4-4---4-----|-4-4-4-4-4-4-4-4-5-5-5-5-2-2-2-2-|
A|---------------------------------|---------------------------------|
E|---------------------------------|---------------------------------|
 |
 |Guitar 2
E|---------------------------------|---------------------------------|
H|---------------------------------|---------------------------------|
G|-------4-------------------------|-------4-------------------------|
D|---------4-4-2-2-----------------|---------4-4-2-2-----5-5-5-5-4-4-|
A|-2-2-2-----------3-3-3-3-3-3-3-3-|-2-2-2-----------3-3-------------|
E|---------------------------------|---------------------------------|

Play 6 times


Riff 5: 

"In die Nacht fällt dein Schein"

 |Guitar 1
E|---------------------------------|---------------------------------|---|
H|---------------------------------|---------------------------------|---|
G|---------------------------------|---------------------------------|---|
D|-2-2-2-2-5-5-2-2-3-2-----3-3-3-3-|-2-2-2-2-5-5-2-2-3-2-----5-5-5-5-|-5-|
A|---------------------5-3---------|---------------------5-3---------|---|
E|---------------------------------|---------------------------------|---|
 |
 |Guitar 2
E|---------------------------------|---------------------------------|---|
H|---------------------------------|---------------------------------|---|
G|---------------------------------|---------------------------------|---|
D|---------------------------------|-----------------7-7-7-7---------|---|
A|-0-0-0-0-0-0-0-0-2-0-2-2-2-2-3-2-|-3-3-3-3-3-3-5-3-5-5-5-5-3---5---|-7-|
E|---------------------------------|-------------------------1---3---|-5-|

Everything 4x


Clean Part:

 |Guitar 1
E|---------------------------------|---------------------------------|
H|---------------------------------|---------------------------------|
G|---------------------------------|---------------------------------|
D|-2---2---2---2---5---5-----------|---------------------------------|
A|---2---2---2---2---2---2-3---3---|-5---3-2-3---3---3---3---2---3---|
E|---------------------------3---3-|-----------5---0---3---3---0---3-|

(damn Off-beats)

 2 times, then comes Guitar 2.

"In die Nacht fällt dein Schein"
 |Guitar 2
E|----------------------------------|---------------------------------|
H|----------------------------------|---------------------------------|
G|-4---4-----------4---4---7-5-4545-|-4---4-----------------------0-2-|
D|---5---5-7-5-4-2---5---5----------|---5---5-7-5-4-2-4-2-0-2-2-------|
A|----------------------------------|---------------------------------|
E|----------------------------------|---------------------------------|


Riff 6:

"In die Nacht schwebt dein Glanz"
 |Guitar 1
E|---------------------------------|---------------------------------|
H|---------------------------------|---------------------------------|
G|---------------------------------|---------------------------------|
D|-2-2-2-2-2-2-2-2-2-2-2-2-2-2-2-2-|-6-6-6-6-6-6-6-6-----------------|
A|-2-2-2-2-2-2-2-2-2-2-2-2-2-2-2-2-|-2-2-2-2-2-2-2-2-3-3-3-3-3-3-3-3-|
E|---------------------------------|-----------------5-5-5-5-5-5-5-5-|
 |
 |Guitar 2
E|---------------------------------|---------------------------------|
H|---------------------------------|---------------------------------|
G|-4-4-0-0-4-4-0-0-2-2-0-0---------|-4-4-0-0-4-4-0-0-7-7-5-5-4-4-5-5-|
D|-------------------------4-4-2-2-|---------------------------------|
A|---------------------------------|---------------------------------|
E|---------------------------------|---------------------------------|

"In die Nach führt dein Weg"

 |Guitar 1 
E|---------------------------------|---------------------------------|---|
H|---------------------------------|---------------------------------|---|
G|---------------------------------|---------------------------------|---|
D|---------------------------------|---------------------------------|-2-|
A|-5-5-5-5-3-3-2-2-3-3-3-3-3-3-3-3-|-3-3-3-3-3-3-3-3-2-2-2-2-3-3-3-3-|-2-|
E|-----------------3-3-3-3-0-0-0-0-|-3-3-3-3-3-3-3-3-0-0-0-0-3-3-3-3-|-0-|
 |
 |Guitar 2
E|---------------------------------|---------------------------------|---|
H|---------------------------------|---------------------------------|---|
G|-4-4-0-0-4-4-0-0-2-2-0-0---------|-------------------------0-0-2-2-|-4-|
D|-------------------------4-4-2-2-|-4-4-2-2-0-0-2-2-2-2-2-2---------|---|
A|---------------------------------|---------------------------------|---|
E|---------------------------------|---------------------------------|---|

Everything 4 times 

!end!

Corrections or Questions to Ben, gyrospitath@gmx.de

That´s the link to the official website:

www.dornenreich.com
Tap to rate this tab
# A B C D E F G H I J K L M N O P Q R S T U V W X Y Z