Song name
# A B C D E F G H I J K L M N O P Q R S T U V W X Y Z

Tokio Hotel - Forgotten Children tab

Band: Tokio Hotel
Songname: Forgotten children

This is my vesion of Vergessene kinder. Sat an whole week to find them.
Annyways, I haven't the end of the song, just the start (verse and Chorus).
You may have to set the tune on your guitar down a bit.
Enjoy :)

Intro:
|------0-----0----------0-----0----------0-----0---------0-----0---|
|------------------------------------------------------------------|
|------------------------------------------------------------------|
|------------------------------------------------------------------| x1
|------------------------------------------------------------------|
|---5----5-----------5----5-----------1----1----------1----0-------|

Verse:
|------0-----0----------0-----0----------0-----0---------0-----0---|
|------------------------------------------------------------------|
|------------------------------------------------------------------|
|------------------------------------------------------------------| x4
|------------------------------------------------------------------|
|---5----5-----------5----5-----------1----1----------1----0-------|
  "Just a normal day..."

|------0-----0----------0-----0----------0-----0---------------3---|
|--------------------------------------------------------3---------|
|------------------------------------------------------------------|
|------------------------------------------------------------------| x1
|------------------------------------------------------------------|
|---5----5-----------5----5-----------1----1----------3----3-------|
  "To many of them out there..."
Chorus:
|------------------------------------------------------------------|
|------------------------------------------------------------------|
|--------2-------------2--------------2---------------5----5-------|
|---0------3-------------3--------------3-----------3--------------| x6
|------------------1-----------------------------3-----------------|
|---------------------------------1--------------------------------|
  "Lost and so alone..."

Verse:
|------0-----0----------0-----0----------0-----0---------0-----0---|
|------------------------------------------------------------------|
|------------------------------------------------------------------|
|------------------------------------------------------------------| x1
|------------------------------------------------------------------|
|---5----5-----------5----5-----------1----1----------1----0-------|
  (silence)

|------0-----0----------0-----0----------0-----0---------0-----0---|
|------------------------------------------------------------------|
|------------------------------------------------------------------|
|------------------------------------------------------------------| x2
|------------------------------------------------------------------|
|---5----5-----------5----5-----------1----1----------1----0-------|
  "Eyes without lies..."

|------0-----0----------0-----0----------0-----0---------------3---|
|--------------------------------------------------------3---------|
|------------------------------------------------------------------|
|------------------------------------------------------------------| x1
|------------------------------------------------------------------|
|---5----5-----------5----5-----------1----1----------3----3-------|
  "A life in disguise..."

Chorus:
|------------------------------------------------------------------|
|------------------------------------------------------------------|
|--------2-------------2--------------2---------------5----5-------|
|---0------3-------------3--------------3-----------3--------------| x6
|------------------1-----------------------------3-----------------|
|---------------------------------1--------------------------------|
  "Lost and so alone..."

And, temporally, I don't have more.. Well, i got the last chours, but i miss the part 
he sings "It shouldn't really be that way", so..
I'll guess I will find it some time. Till then, I hope you can do with this.
See ya!
Tap to rate this tab
# A B C D E F G H I J K L M N O P Q R S T U V W X Y Z