Song name
# A B C D E F G H I J K L M N O P Q R S T U V W X Y Z

Tokyo Police Club - Listen To The Math tab

-------------------------------------------------------------------------------
	             Listen to the Math - Tokyo Police Club
-------------------------------------------------------------------------------

Email:dwawryko@hotmail.com

Tuning:Standard


Kicks in at 1:01:
"It's a ruse, It's a laugh."   

e|-----7---------7---------7---------7-------|      
B|-------9---------9---------9---------9-----|      Play 4 times
G|---9-----9---8-----8---9-----9---8-----8---|
D|-------------------------------------------|
A|-------------------------------------------|
E|-------------------------------------------|

Then: 

e|-------------------------------------------|
B|---7-7-7-7-7/9\4-4/5---7-7-7-7-7/9\4-4/5---|      Play 2 times
G|-------------------------------------------|
D|-------------------------------------------|
A|-------------------------------------------|
E|-------------------------------------------|



Again at 1:51:
"It's a ruse, It's a laugh."  

e|-----7---------7---------7---------7-------|      
B|-------9---------9---------9---------9-----|      Play 4 times
G|---9-----9---8-----8---9-----9---8-----8---|
D|-------------------------------------------|
A|-------------------------------------------|
E|-------------------------------------------|

Then: 

e|-------------------------------------------|
B|---7-7-7-7-7/9\4-4/5---7-7-7-7-7/9\4-4/5---|      Play 2 times
G|-------------------------------------------|
D|-------------------------------------------|
A|-------------------------------------------|
E|-------------------------------------------|

End with:

e|--------------------------------------------------------|
B|---12-12-12-12-12-12-12-12-10-10-10-10-10-10-10-10-9~---|
G|--------------------------------------------------------|
D|--------------------------------------------------------|
A|--------------------------------------------------------|
E|--------------------------------------------------------|



| /  slide up
| \  slide down
| h  hammer-on
| p  pull-off
| ~  vibrato
| +  harmonic
| x  Mute note
===============================================================================
Tap to rate this tab
 
# A B C D E F G H I J K L M N O P Q R S T U V W X Y Z