Guitaretab - guitar tabs
Song name
# A B C D E F G H I J K L M N O P Q R S T U V W X Y Z

Tokyo Police Club - In A Cave tab

-------------------------------------------------------------------------------
			     IN A CAVE - TOKYO POLICE CLUB
                                   ELEPHANT SHELL
-------------------------------------------------------------------------------
Tabbed by:Pauli Finnigan
Email:paulii_poo@hotmail.co.uk

I'm not quite sure whether part of this song was played on keyboard or Guitar, but I
it anyway. In personal opinion I think it switches after the first verse. I've added which
are used above some parts of the tablature incase the tabs are missread.
Pleas rate, thanks.

Tuning:EADGBe

Intro: Bass/Guitar feedback...

RIFF I
e|--10-7--10-7--10-7--10-7--------------------------------------------------|
B|-8-----8-----8-----7------------------------------------------------------|
G|--------------------------------------------------------------------------|
D|--------------------------------------------------------------------------|
A|--------------------------------------------------------------------------|
E|--------------------------------------------------------------------------|

Bass/Guitar feedback...

"All my Hair grows in"
Bass/Guitar
RIFFS II
e|--------------------------------------------------------------------------|
B|--------------------------------------------------------------------------|
G|--------------------------------------------------------------------------|
D|--------------------------------------------------------------------------|
A|--------------------------------------------------------------------------|
E|-7-7-3-7-7-3--------------------------------------------------------------|

&

Guitar/Keyboard
e|-15-14-12-----------------------------------------------------------------|
B|---------12-15------------------------------------------------------------|
G|--------------------------------------------------------------------------|
D|--------------------------------------------------------------------------|
A|--------------------------------------------------------------------------|
E|--------------------------------------------------------------------------|

RIFF I...
[ Tab from: http://www.guitaretab.com/t/tokyo-police-club/108413.html ]
RIFF III [RIFF II plays in background]
[3][12][10][7][3][12][10][14]
e|--------------------------------------------------------------------------|
B|--------------------------------------------------------------------------|
G|--------------------------------------------------------------------------|
D|--------------------------------------------------------------------------|
A|--------------------------------------------------------------------------|
E|-3-3-3-121212121212-101010-7777-3-3-3-12121212-101010-14141414------------|

RIFF II...
"All my Hair grows in"

Drums/Keyboard...

RIFF IV
"Elephant Shell..."
[5][12][5][7][10]
e|--------------------------------------------------------------------------|
B|--------------------------------------------------------------------------|
G|--------------------------------------------------------------------------|
D|--------------------------------------------------------------------------|
A|-5-5-5-1414141414-5-5-5-77-7-1010-5-5-5-1414141414-5-5-5-77-7-1010--------|
E|--------------------------------------------------------------------------|

e|--------------------------------------------------------------------------|
B|--------------------------------------------------------------------------|
G|--------------------------------------------------------------------------|
D|------------------------------1212----------------------------------------|
A|-5-5-5-141414-12-10-7-77-1010------5-5-5-1414141414-5-5-5-77-7-1010-------|
E|--------------------------------------------------------------------------|

e|--------------------------------------------------------------------------|
B|--------------------------------------------------------------------------|
G|--------------------------------------------------------------------------|
D|--------------------------------------------------------------------------|
A|-5-5-5-1414141414-5-5-5-77-7-1010-5-5-5-1414141414-5-5-5-77-7-1010--------|
E|--------------------------------------------------------------------------|

e|--------------------------------------------------------------------------|
B|--------------------------------------------------------------------------|
G|--------------------------------------------------------------------------|
D|------------------------------1212----------------------------------------|
A|-5-5-5-141414-12-10-7-77-1010------5-5-5-1414141414-5-5-5-77-7-1010-------|
E|--------------------------------------------------------------------------|

OUTRO[RIFF IV continues]
e|------12------------------------------------------------------------------|
B|----------1212-1212-1212-12-10-10-10--------------------------------------|
G|-12-14--12----------------------------------------------------------------|
D|--------------------------------------------------------------------------|
A|--------------------------------------------------------------------------|
E|--------------------------------------------------------------------------|

| /  slide up
| \  slide down
| h  hammer-on
| p  pull-off
| ~  vibrato
| +  harmonic
| x  Mute note
===============================================================================
Related for In A Cave tab
Advertisement will be closed in 10 seconds