Song name
# A B C D E F G H I J K L M N O P Q R S T U V W X Y Z

Tokyo Police Club - Tessellate tab

-------------------------------------------------------------------------------
			     TESSELLATE - Tokyo Police Club
-------------------------------------------------------------------------------
Tabbed by: Shawn
Email: motioncityost@yahoo.com

Tuning: Standard

Not too much guitar in this one.

Intro Gtr. 1
e|-12----12---11---11----9----9---11---11----|
B|----9-----9----9----9----9----9----9----9--|
G|---9-9---9-9--9-9--9-9--9-9--9-9--9-9--9-9-|
D|-------------------------------------------|
A|-------------------------------------------|
E|-------------------------------------------|x2

Intro Gtr.2
e|-12-12-12-12-11-11-11-11-9-9-9-9-5-5-5-5-|
B|-----------------------------------------|
G|-----------------------------------------|
D|-----------------------------------------|
A|-----------------------------------------|
E|-----------------------------------------|x2

Pre-Chorus Gtr.1
"Dire Times..."
e|-12---12---12---11----9----9---11---11----|
B|----9----9----9----9----9----9----9----9--|
G|---9-9--9-9--9-9--9-9--9-9--9-9--9-9--9-9-|
D|------------------------------------------|
A|------------------------------------------|
E|------------------------------------------|x2

Pre Chorus Gtr.2
e|-12-12-12-12-12-12-11-11-9-9-9-9-5-5-5-5-|
B|-----------------------------------------|
G|-----------------------------------------|
D|-----------------------------------------|
A|-----------------------------------------|
E|-----------------------------------------|x2

Small riff prior to the second chorus
Gtr.1
e|-----------------------------------------|
B|-5---7---9---12--------------------------|
G|-----------------------------------------|
D|-----------------------------------------|
A|-----------------------------------------|
E|-----------------------------------------|


| /  slide up
| \  slide down
| h  hammer-on
| p  pull-off
| ~  vibrato
| +  harmonic
| x  Mute note
===============================================================================
Tap to rate this tab
# A B C D E F G H I J K L M N O P Q R S T U V W X Y Z