Song name
# A B C D E F G H I J K L M N O P Q R S T U V W X Y Z

Tokyo Police Club - Shoulders And Arms tab

Tokyo Police Club- Shoulders And Arms

I tweaked the notes a little, does it sound better bassoreo?
Matt tabbed this


G|--------------------------------|
D|--------------------------------|      x4
A|77755-775-------77755-775-------|
E|---------5---77----------5---77-|

G|333-333-333-333-333-333-333 333-333-33|
D|--------------------------------------|
A|--------------------------------------|
E|--------------------------------------|

G|--------------------------------|
D|--------------------------------|      
A|77755-775-------77755-775-------|
E|---------5---77----------5--77--|

G|555-555-555-555-555-555-555-555-555-55|
D|--------------------------------------|
A|--------------------------------------|
E|--------------------------------------|
 
After he says "Shoulders back and..."

G|--------------------------------------|
D|--------------------------------------|
A|11-111-133-333-311-111-133-333-333-333| 
E|--------------------------------------|
                                           
G|--------------------------------|
D|--------------------------------|      x2
A|77755-775-------77755-775-------|
E|---------5---77----------5------|

G|333-333-333-333-333-333-333-333-333-33|
D|--------------------------------------|
A|--------------------------------------|
E|--------------------------------------|

G|--------------------------------|
D|--------------------------------|      
A|77755-775-------77755-775-------|
E|---------5---77----------5------|

G|555-555-555-555-555-555-555-555-555-55|
D|--------------------------------------|
A|--------------------------------------|
E|--------------------------------------|

After he says "Shoulders back and..."

G|--------------------------------------|
D|--------------------------------------|
A|11-111-133-333-311-111-133-333-333-333| 
E|--------------------------------------|

G|-----------------|
D|-----------------|   X2
A|000--2555--999---|
E|000--2555--999---|
Tap to rate this tab
# A B C D E F G H I J K L M N O P Q R S T U V W X Y Z