Song name
# A B C D E F G H I J K L M N O P Q R S T U V W X Y Z

Tokyo Police Club - Cut Cut Paste tab

Band- Tokyo Police Club
Song- Cut Cut Paste
Album- Smith Ep
Tabber: Jon Green

This is my version of Tokyo Police Club’s song Cut Cut Paste.
It’s a pretty simple song to play. The tuning is in Drop D.

I did this by ear and it is difficult to hear the
guitar so be easy on me as some parts are bound to be wrong. 
The verse was kinda hard to get so i just
added scratches because it sounded ok still.
If there is any mistakes let me know and I will edit the tab. 

Tuning: DADGBe

Intro:
e|---------------------------------------|
B|---------------------------------------|
G|-----7-----7-----7-----7---------------|
D|--0--7--0--7--0--7--0--7---------------|  X2
A|--0--5--0--5--0--5--0--5---------------|
D|--0-----0-----0-----0------------------|

Verse:
e|-----------------------------xxxx------------|
B|-----------------------------xxxx------------|
G|-----------------------------xxxx------------|
D|--000000000444444447s9s7s9---xxxx------------|  X4
A|--000000000444444447s9s7s9---xxxx------------|
D|--000000000444444447s9s7s9\--xxxx------------|


No Guitar for the chorus that begins with “and that’s how we first kissed.”

When the line “Cause when we kiss our scars align” Play this section, lead 
into the intro, which goes into the verse.
e|-----------------------------|
B|-----------------------------|
G|----777777777------7-----7---|
D|----777777777---0--7--0--7---|
A|----555555555---0--5--0--5---|
D|----------------0-----0------|

Verse:
e|-----------------------------xxxx------------|
B|-----------------------------xxxx------------|
G|-----------------------------xxxx------------|
D|--000000000444444447s9s7s9---xxxx------------|  X4
A|--000000000444444447s9s7s9---xxxx------------|
D|--000000000444444447s9s7s9\--xxxx------------|

Silent for the second chorus and the rest of the song.

And that’s about it!
Tap to rate this tab
# A B C D E F G H I J K L M N O P Q R S T U V W X Y Z