Song name
# A B C D E F G H I J K L M N O P Q R S T U V W X Y Z

Tokyo Police Club - Hands Reversed Acoustic tab

You can listen to this version on YouTube with Dave playing his electric guitar clean.  
starts playing way before the camera gets to him so you can hear it so I'm starting from 
he starts to sing.

e------------------------------------------------------------------------|
B--4----4-----4----4------8---8------8---8------6---6------4---4---------|
G-----3----3-----3-----3----8-----7----7-----7----5-----5----5----5------|
D------------------------------------------------------------------------|
A------------------------------------------------------------------------|
E--3-----3----3------3----6-----6----6-----6----4-----4----4-----4-------|

 --------------------------|
 -8---8-------8---8--------|
 ---8-----7-----7-----7----| x3
 --------------------------|
 --------------------------|
 -6-----6----*8----*6------|

 *On the third time on the E string just play *8 and *6 alone in time.

e---------------------------------------------|
B--4---4------4---4-----8---8------8---8------|
G----3-----3----3----3----8-----7----7-----7--|
D---------------------------------------------|
A---------------------------------------------|
E--3-----3----3-----3---6-----6----6-----6----|

 |----------------------------------------------|
 |--6---6-----6---6------4---4------4---4-------|
 |----7-----7---7-----7----5-----5----5-----5---| x3
 |----------------------------------------------|
 |----------------------------------------------|
 |--6-----6---6-----6----4-----4----4-----4-----|

e---------------------------------|
B--11----11-----------------------|
G-----12--------8/10----10--------|
D--------------------10------10---|
A---------------------------------|
E--11-------11--6/8--------8------|

 ------------------------------------------------------------------------|
 --4----4-----4----4------8---8------8---8------6---6------4---4---------|
 -----3----3-----3-----3----8-----7----7-----7----5-----5----5----5------|
 ------------------------------------------------------------------------|
 ------------------------------------------------------------------------|
 --3-----3----3------3----6-----6----6-----6----4-----4----4-----4-------|

 --------------------------|
 -8---8-------8---8--------|
 ---8-----7-----7-----7----| x2(or however long you want depending on planes)
 --------------------------|
 --------------------------|
 -6-----6----*8----*6------|

Repeat everything here one more time and that's the song.
Tap to rate this tab
# A B C D E F G H I J K L M N O P Q R S T U V W X Y Z