Song name
# A B C D E F G H I J K L M N O P Q R S T U V W X Y Z

Tokyo Police Club - Favourite Colour tab

----------------------------------------------------------------------------
			 Tokyo Police Club - Favourite Colour
----------------------------------------------------------------------------
Tabbed by: adslam3

A few notes before we begin:
1. This is basically how the song goes.
2. You might want to use barred chords.
3. The chords used are G#, F, Eb, C#, Bb
4. Where I play them on the neck might not be where they are played
in the recording. For example, I play C# like x 4 6 6 6 x,
but TPC might play 9 11 11 10 9 9
5. Interpret this as you want, have fun and play whichever style you like.

Tuning: Standard
Intro
e|--------------------------------------------------------------------------|
B|--------------------------------------------------------------------------|
G|--13--10--8--6--3---------------------------------------------------------|
D|--13--10--8--6--3--6------------------------------------------------------|
A|--11--8---6--4--1--6------------------------------------------------------|
E|-------------------4------------------------------------------------------|

VERSE 1 (played 4 times)
e|--------------------------------------------------------------------------|
B|--------------------------------------------------------------------------|
G|----------------------------------1010101010101010-6-6-6-6-6-6-6-6--------|
D|-6-6-6-6-6-6-6-6-6-6-6-6-6-6-6-6--1010101010101010-6-6-6-6-6-6-6-6--------|
A|-6-6-6-6-6-6-6-6-6-6-6-6-6-6-6-6--8-8-8-8-8-8-8-8--4-4-4-4-4-4-4-4--------|
E|-4-4-4-4-4-4-4-4-4-4-4-4-4-4-4-4------------------------------------------|

CHORUS 1
e|--------------------------------------------------------------------------|
B|-----------------10-------------------------------------------------------|
G|-----------------10--6-6-6---6-6-6--10-10---------------------------------|
D|--6-6-6---6-6-6--10--6-6-6---6-6-6--10-10-----play this all two times-----|
A|--6-6-6---6-6-6--8---4-4-4---4-4-4--8--8----------------------------------|
E|--4-4-4---4-4-4-----------------------------------------------------------|

After 1st chorus repeat intro of G# - F - Eb - C# - Bb - G#

VERSE 2 (Played 2 times)
e|--------------------------------------------------------------------------|
B|--------------------------------------------------------------------------|
G|----------------------------------1010101010101010-6-6-6-6-6-6-6-6--------|
D|-6-6-6-6-6-6-6-6-6-6-6-6-6-6-6-6--1010101010101010-6-6-6-6-6-6-6-6--------|
A|-6-6-6-6-6-6-6-6-6-6-6-6-6-6-6-6--8-8-8-8-8-8-8-8--4-4-4-4-4-4-4-4--------|
E|-4-4-4-4-4-4-4-4-4-4-4-4-4-4-4-4------------------------------------------|

FILL (after two plays of verse 2)
e|--------------------------------------------------------------------------|
B|--------------------------------------------------------------------------|
G|--------------------------------------------------------------------------|
D|-10-10-10-10-10-10-10-10-13-13-13-13-13-13-13-13--------------------------|
A|--------------------------------------------------------------------------|
E|--------------------------------------------------------------------------|

VERSE 3 (played 2 times)
e|--------------------------------------------------------------------------|
B|--------------------------------------------------------------------------|
G|----------------------------------1010101010101010-6-6-6-6-6-6-6-6--------|
D|-6-6-6-6-6-6-6-6-6-6-6-6-6-6-6-6--1010101010101010-6-6-6-6-6-6-6-6--------|
A|-6-6-6-6-6-6-6-6-6-6-6-6-6-6-6-6--8-8-8-8-8-8-8-8--4-4-4-4-4-4-4-4--------|
E|-4-4-4-4-4-4-4-4-4-4-4-4-4-4-4-4------------------------------------------|

CHORUS 2
e|--------------------------------------------------------------------------|
B|-----------------10-------------------------------------------------------|
G|-----------------10--6-6-6---6-6-6--10-10---------------------------------|
D|--6-6-6---6-6-6--10--6-6-6---6-6-6--10-10-----play this all 3 times-------|
A|--6-6-6---6-6-6--8---4-4-4---4-4-4--8--8----------------------------------|
E|--4-4-4---4-4-4-----------------------------------------------------------|

FILL (to lead into SOLO)
e|--------------------------------------------------------------------------|
B|--------------------------------------------------------------------------|
G|--------------------------------------------------------------------------|
D|-10-10-10-10-10-10-10-10-13-13-13-13-13-13-13-13--------------------------|
A|--------------------------------------------------------------------------|
E|--------------------------------------------------------------------------|

Solo (tremelo picking-I'm not showing exact strumming, listen for changes)
e|--------------------------------------------------------------------------|
B|--------------------------------------------------------------------------|
G|--------------------------------------------------------------------------|
D|--6-6-6-6-6-6-6-6--18-18-18-18--13-13-13-13--10-10-10-10-10-10-10-10------|
A|--------------------------------------------------------------------------|
E|--------------------------------------------------------------------------|

e|--------------------------------------------------------------------------|
B|--------------------------------------------------------------------------|
G|--------------------------------------------------------------------------|
D|-15-15-15-15--13-13-13-13--6-6-6-6-6-6-6-6-6--18-18-18-18--13-13-13-13----|
A|--------------------------------------------------------------------------|
E|--------------------------------------------------------------------------|

e|---------------------------------------------------------------------------|
B|---------------------------------------------------------------------------|
G|--------------------------17-17-17-17-17-17-17-17--------------------------|
D|-10-10-10-10-10-10-10-10---------------------------------------------------|
A|---------------------------------------------------------------------------|
E|---------------------------------------------------------------------------|

CHORUS 3
e|--------------------------------------------------------------------------|
B|-----------------10-------------------------------------------------------|
G|-----------------10--6-6-6---6-6-6--10-10---------------------------------|
D|--6-6-6---6-6-6--10--6-6-6---6-6-6--10-10-----play this all 4 times-------|
A|--6-6-6---6-6-6--8---4-4-4---4-4-4--8--8----------------------------------|
E|--4-4-4---4-4-4-----------------------------------------------------------|

ENDING
e|--------------------------------------------------------------------------|
B|--------------------------------------------------------------------------|
G|--------------------------------------------------------------------------|
D|-10-10-10-10-10-10-10-10-13-13-13-13-13-13-13-13--------------------------|
A|--------------------------------------------------------------------------|
E|--------------------------------------------------------------------------|

e|--------------------------------------------------------------------------|
B|--------------------------------------------------------------------------|
G|--13--10--8--6--3---------------------------------------------------------|
D|--13--10--8--6--3--6------------------------------------------------------|
A|--11--8---6--4--1--6------------------------------------------------------|
E|-------------------4------------------------------------------------------|


************************************

| /   slide up
| \   slide down
| h   hammer-on
| p   pull-off
| ~   vibrato
| +   harmonic
| x   Mute note
| b   Bend
| pb  Pre-bend
| br  Bend release
| pbr Pre-bend release
| brb Bend release bend

************************************
Tap to rate this tab
 
# A B C D E F G H I J K L M N O P Q R S T U V W X Y Z