Guitaretab - guitar tabs
Song name
# A B C D E F G H I J K L M N O P Q R S T U V W X Y Z

Tokyo Police Club - Once I Was The Keeper tab

-------------------------------------------------------------------------------
			     Once I Was The Keeper - Tokyo Police Club
-------------------------------------------------------------------------------
Tabbed by: Kaelan Lupton
Email: kaelan.11@live.ca

Dave Monks acoustic song, Live In Bellwoods. Have been seeing this request on a
bunch of youtube videos, so just thought why not. Here ya' go!



Tuning: Half Step Down

Chords:

eb|---3----0-----0-------0-----2----|
Bb|---3----1-----3-------0-----3----|
Gb|---0----0-----0-------0-----2----|
Db|---0----2-----4-------2-----0----|
Ab|---2----3-----5-------2-----x----|
Eb|---3----3-----5-------0-----x----|
      G    C   Gmaj13   Em      D




eb|-----------------------------------------------------------------|
Bb|------3p0--------0---------------3p0--------0--------------------|
Gb|-----------0--------0-----0-----------0--------0-----0-----------|
Db|--/5----------0--------0-------4---------0--------0--------------|
Ab|-----------------------------------------------------------------|
Eb|-----------------------------------------------------------------|

eb|-----------------------------------------------------------------|
Bb|-----3p0--------1p0-----------------8p0-----------------8--------|
Gb|----------0----------0-----0-------------0------9p0-----0--------|
Db|--0----------0----------0-------/10---------10------10--10-------|
Ab|-----------------------------------------------------------------|
Eb|-----------------------------------------------------------------|

eb|-----------------------------------------------------------------|
Bb|------3p0--------0----------------3p0--------0-------------------|
Gb|-----------0---------0-----0-----------0--------0-----0----------|
Db|--/5----------0---------0-------4---------0--------0-------------|
Ab|-----------------------------------------------------------------|
Eb|-----------------------------------------------------------------|

eb|-----------------------------------------------------------------|
Bb|-----3p0--------1p0---------------3p0--------1p0-----------------|
Gb|----------0----------0-----0-----------0----------0-----0--------|
Db|--0----------0----------0-----------------0----------0-----------|
Ab|--------------------------------3--------------------------------|
Eb|-----------------------------------------------------------------|


G
Once I was the keeper of a secret surprise,

But now it's gone away.

Every time I loo into the darks of your eyes,
C                  Gmaj13
You always look away.


         Em      C        G              D
Cause in my mind you don't know where I live.
    Em           C                       G                      D
But one day your hand will be on my door, you will give it a twist.
        Em         C     G             D
And my heart will stop, I'll lay where I stand.
    Em             C         G                               D
And I hope that you'd dial the ambulance as fast as you could.

[ Tab from: http://www.guitaretab.com/t/tokyo-police-club/296456.html ]
eb|------------------------------------------------------------------|
Bb|------------------------------------------------------------------|
Gb|-----2p0-------0----------------4p0--------0----------------------|
Db|----------0--------0----0------------0---------0-----0------------|
Ab|--2----------2--------2-------3---------0--------3----------------|

eb|------------------------------------------------------------------|
Bb|------------------------------------------------------------------|
Gb|-----5p0-------4--p0------0-------4p0---------0-------------------|
Db|----------0------------0----------------0---------0------0--------|
Ab|---5---------5------------------3-----------3---------3-----------|
Eb|------------------------------------------------------------------|

eb|-----------------------------------------------------------------|
Bb|------3p0--------0----------------3p0--------0-------------------|
Gb|-----------0---------0-----0-----------0--------0-----0----------|
Db|--/5----------0---------0-------4---------0--------0-------------|
Ab|-----------------------------------------------------------------|
Eb|-----------------------------------------------------------------|

eb|---------------------------------0-0-0-0-0-0-0-0----------------|
Bb|-----3p0--------1p0-------------1-1-1-1-1-1-1-1-----------------|
Gb|----------0----------0-----0----0-0-0-0-0-0-0-0-----------------|
Db|--0----------0----------0-------2-2-2-2-2-2-2-2-----------------|
Ab|---------------------------------3-3-3-3-3-3-3-3----------------|
Eb|---------------------------------3-3-3-3-3-3-3-3----------------|
                                                                 ^ v  ^  v  ^  v  ^  v



Of course you are the winner and the trump of the town,
But all nonsense aside,
I'll always be the way that you remember me now,
The way that you remember me best

Cause in my mind you don't know where I live.
But one day your hand will be on my door, you will give it a twist.
And my heart will stop, I'll lay where I stand.
And I hope that you dial the ambulance as fast as you could, as fast as you should.


eb|-----------------------------------------------------------------|
Bb|------3p0--------0----------------3p0--------0-------------------|
Gb|-----------0---------0-----0-----------0--------0-----0----------|
Db|--/5----------0---------0-------4---------0--------0-------------|
Ab|-----------------------------------------------------------------|
Eb|-----------------------------------------------------------------|

eb|-----------------------------------------------------------------|
Bb|-----3p0--------1p0---------------3p0--------1p0-----------------|
Gb|----------0----------0-----0-----------0----------0-----0--------|
Db|--0----------0----------0-----------------0----------0-----------|
Ab|--------------------------------3--------------------------------|
Eb|-----------------------------------------------------------------|


G                                 C                          G
Once I was the keeper of a secret surprise, but now it's gone for good.




boom.

************************************

| /   slide up
| \   slide down
| h   hammer-on
| p   pull-off

************************************
Related for Once I Was The Keeper tab
Once I Was The Keeper chords by Tokyo Police Club