Song name
# A B C D E F G H I J K L M N O P Q R S T U V W X Y Z

Tokyo Police Club - Argentina Parts Iii Iii tab

distorted
e|--------------------|
B|--------------------|
G|---1-1-1-1-1-1-1-1--| repeated        
D|---2-0-2-0-2-0-2-0--|                                                                            
A|---2-0-2-0-2-0-2-0--|
E|--------------------|
E
Oh what a girl
I wish I had another sister
For me

A
I’d take her to the park
                                E
While you were at work




How many kinds of people do you think there really are
For me?
A
Enough to fill a room
                           E
Enough to fill a mall

E             A               B
One sunset falls on the sea
           A      E
You are not crying

E
Oh what a girl
I wish we had a conversation
Face to face
A
Cuz when you speak
                        E
You speak in waves
e|--------------------------|
B|---9---7-9-----7-9--------|
G|-----9-------9------------|
D|--------------------------|                                   
A|--------------------------|
E|--------------------------|

But then you go into your secret place and hide
From me?
A                                                       E
I wanna look in all the dark, dark, dark, dark, dark, dark, dark, dark comers
        E           A           B
One season you wait and see
          A      E
You are not crying

E             A         B
One lover turns into me
            A     E
You are not crying

B
For me
        E
Oh Argentina
distorted
e|--------------------|
B|--------------------|
G|---1-1-1-1-1-1-1-1--| repeated        
D|---2-0-2-0-2-0-2-0--|                                                                            
A|---2-0-2-0-2-0-2-0--|
E|--------------------|

A B E B A

A              B
Born in 1988
        E       B
Give or take

A       
We share bottles
              B
We share gum

When you smile
        E                   B          A
You smile with all your teeth at once

B E B 

E
Oh what a girl I want you wearing my t-shirt
XL
A                     E
Yeah, you wear it well

e|--------------------------|
B|---9---7-9-----7-9--------|
G|-----9-------9------------|
D|--------------------------|                                   
A|--------------------------|
E|--------------------------|

E
How many kinds of people do you think there really are
For me?
A                                                               E
I want to see you in the bright, bright, bright, bright, bright, bright, bright, bright morning

E               A             B
One sunset pink on the sea
A               E
You are not crying

E               A       B
One lover turns into me
A               E
You are not crying
B
For me

E
Oh, Argentina

palm muted
e|--------------------|
B|--------------------|
G|---1-1-1-1-1-1-1-1--| repeated        
D|---2-0-2-0-2-0-2-0--|                                                                           
A|---2-0-2-0-2-0-2-0--|
E|--------------------|

A              B
Born in 1988
                  E                     B        A
Give or take a year or month a wedding day

A               
We share bottles
                B
We share gum
                E
When you smile
                             B        A
You smile with all your teeth at once
                                        B
And when you smile with all your teeth
                E       B       A
Yeah, I’m done



                                        B
And when you smile with all your teeth
                E       B       A
Yeah, I’m done

A  C#m  E  B

A              C#M                  E
I don’t want to want you like I want you
          B                    A                                                
I don’t want to want you like I want you
C#M                     E           B           A
I don’t want to want you like I want you
        A                    C#m
I don’t want to want you like I want you
E                            B          A       B       E   E   E
I don’t want to want you like I want you

E B       A E  x2

E               B
Television wakes me up
a                       e
With the sound of a gun
e                       B
Feeling like I’m here alone
A                       E
But I’m not the only one
E                  B
You were lying next to me
A                               E
Wearing someone else’s clothes
E               B
Have I been asleep for long
A                       E
In the informercial glow
        B
Whoa oh

E                    B                  A
Now I see the things that I have done
E                B              A
Everything in focus all at once

e|------------2-------0-----0---|
B|--9-9-----4---4---2---2-2---2-|
G|--9---9---4-------2-----2-----|
D|--9-------4-------2-----2-----|                            
A|------------------------------|
E|------------------------------|

e|------------2----------0------|
B|--9-9-----4---4--------2------|
G|--9---9---4------------2------|
D|--9-------4------------2------|  
A|------------------------------|           
E|------------------------------|

A  A  E D

e|-------------------------------------------|
B|-------------------------------------------|
G|-----7h9-6----9s11-9----6h7-4----4h6p4-2---|
D|---7--------7---------7--------7-----------|
A|-------------------------------------------|
E|-------------------------------------------|

A
When I was an infant   
E               D
I could see it clear



e|----------------------------------------------|
B|-----5---------------------5------------------|
G|-------6---4-6--4-----2------6---4-6-4-----2--|
D|---------7---------------------7--------------|
A|----------------------------------------------|
E|----------------------------------------------|


A
When I was a lover
E             D
I could see it clear
A
And yeah
e|-----0----------------------------------------|
B|-----2----------5----------5------------------|
G|-----2------------6-4--------6---4-6-4-----2--|
D|-----2----------------7--------7--------------|
A|-----0----------------------------------------|
E|----------------------------------------------|
                E
I could be a fool
        D
Sometimes
A
But I was a lover
E                  D
And I could see it clear

E               
‘Cause if I had known
That you were
F#m                     D
Only here for the weekend

E
‘Cause if I had only known
F#m                     D
What you were thinking

E
I would have been

So, so, so, so
F#m     D
Much nicer
E
So, so, so, so
F#m     D
Much nicer

A A E D

e|------------------------------------------|
B|------------------------------------------|
G|-----7h9-6----9s11-9----6h7-4----4h6p4-2--|   x2
D|---7--------7---------7--------7----------|    
A|------------------------------------------|
E|------------------------------------------|


A
If I was a lighthouse
E               D
I would look all

Over the place
e|----------------------------------------------|
B|-----5---------------------5------------------|
G|-------6---4-6--4-----2------6---4-6-4-----2--|
D|---------7---------------------7--------------|
A|----------------------------------------------|
E|----------------------------------------------|

A
If i was an asshole
E                   D
Thank you for keeping

A smile on your face

A
And yeah
e|-----0----------------------------------------|
B|-----2----------5----------5------------------|
G|-----2------------6-4--------6---4-6-4-----2--|
D|-----2----------------7--------7--------------|
A|-----0----------------------------------------|
E|----------------------------------------------|
                E
I could be a fool
                D
Most of the time
A
But I was a lover
E                  D
And I could see it clear

E
‘Cause if I had known

That you were
F#m                     D
Only here for the weekend

E
‘Cause if I had only known
F#m                    D
What you were thinking
                 
I would have been
E               
So, so, so, so
F#m     D
Much nicer
E
So, so, so, so
F#m     D
Much nicer

A  A  E D

e|-----------------------------------------------------------|
B|-----------------------------------------------------------|
G|-----7h9-6----9s11-9----6h7-4----4h6p4-2-------------------| repeated
D|---7--------7---------7--------7---------------------------|
A|-----------------------------------------------------------|
E|-----------------------------------------------------------|

A
Yeah
E       D       A
I can see it
E       D       A
I can see it
Clear

A  A  E  D

E       D       A
I can see it
Clear

distorted
e|--------------------|
B|---2-0-2-0-2-0-2-0--|
G|---2-0-2-0-2-0-2-0--| repeated
D|---2-0-2-0-2-0-2-0--|                                                          
A|--------------------|
E|--------------------|
Tap to rate this tab
 
# A B C D E F G H I J K L M N O P Q R S T U V W X Y Z