Song name
# A B C D E F G H I J K L M N O P Q R S T U V W X Y Z

Tokyo Police Club - La Ferrassie tab

Listen to the song while playing...

BEGINNING: i'm pretty sure this is it
e-3-3-------2-2-|
b-5-5-------3-3-|
g-5---------4---|
d---------------|
a---------------|
e---------------|


MIDDLE: this is all i could make out
e----------------|
b------------5---|
g- 4----7--------|
d----------------|
a----------------|
e----------------|


END: this how it ends with t picking

e--15----14-----19-----|
b----------------------|
g----------------------|
d----------------------|
a----------------------|
e----------------------|
Tap to rate this tab
# A B C D E F G H I J K L M N O P Q R S T U V W X Y Z