Song name
# A B C D E F G H I J K L M N O P Q R S T U V W X Y Z

Tokyo Rose - Right Through Your Teeth tab

----------------------------------------------------------------------------
			     Right Through Your Teeth - Tokyo Rose
----------------------------------------------------------------------------
Tabbed by:Tomas
Email:Skater_tomas@hotmail.com
i havnt seen too many tokyo rose tabs out there and none on this site. this
song is off the 1st album,and i beleve its also on the 2nd one too.these guys
r also out of the New Jersey scene.the next song i want to   post is "I love
You Too" by tokyo rose so keep a eye out .. hope this tab helps oh and check
out there purevolume page

Tuning:Dadgbe

Intro
0:01
e|--------------------------------------------------------------------------|
B|--------------------------------------------------------------------------|
G|-----9--9-----------------------------------------------------------------|
D|--7--9--9-----x4----------------------------------------------------------|
A|--7--7--0-----------------------------------------------------------------|
E|--7--7--0-----------------------------------------------------------------|
intro2
0:02
e|--------------------------------------------------------------------------|
B|--------------------------------------------------------------------------|
G|-14-13-9-11-9-6---6-6/7-9----13 13-14-16-14-14-16-18--16-14-16-14----x2---|
D|--------------------------------------------------------------------------|
A|--------------------------------------------------------------------------|
E|--------------------------------------------------------------------------|
then  a drum break
and this koo lil riff comes in
:32
e|---------------------------------------------------------------------------|
B|---------------------------------------------------------------------------|
G|-14-13--9-6--9/11--9/11---14/13--------------------------------------------|
D|--x--x--x-x--x/-x--x/-x----x/-x----x2--------------------------------------|
A|-12-11--7-4--7/-9--7/-9---12/11--------------------------------------------|
E|---------------------------------------------------------------------------|
verse
e|--------------------------------------------------------------------------|
B|--------------------------------------------------------------------------|
G|---9-9--------------------------------------------------------------------|
D|-7-9-9-----then play this part its a easy strum with palm muting----------|
A|-7-7-0--------------------------------------------------------------------|
E|-7-7-0--------------------------------------------------------------------|


course
e|----------------|----------------------------------------------------------|
B|----------------|----------------------------------------------------------|
G|----------------|------9-9-------------------------------------------------|
D|-14-13-9-11-9-6-|----7-9-9---x4--------------------------------------------|
A|----------------|----7-7-0-------------------------------------------------|
E|----------------|----7-7-0-------------------------------------------------|


e|---------------------------------------------------------------------------|
B|---------------------------------------------------------------------------|
G|-14-13--9-6--9/11--9/11---14/13--------------------------------------------|
D|--x--x--x-x--x/-x--x/-x----x/-x----x2--------------------------------------|
A|-12-11--7-4--7/-9--7/-9---12/11--------------------------------------------|
E|---------------------------------------------------------------------------|

Verse
Course

i have not yet got to the breakdown but im working on it this song is really easy well hope it helps
e|--------------------------------------------------------------------------|
B|--------------------------------------------------------------------------|
G|--------------------------------------------------------------------------|
D|--------------------------------------------------------------------------|
A|--------------------------------------------------------------------------|
E|--------------------------------------------------------------------------|

e|--------------------------------------------------------------------------|
B|--------------------------------------------------------------------------|
G|--------------------------------------------------------------------------|
D|--------------------------------------------------------------------------|
A|--------------------------------------------------------------------------|
E|--------------------------------------------------------------------------|


| /  slide up
| \  slide down
| h  hammer-on
| p  pull-off
| ~  vibrato
| +  harmonic
| x  Mute note
===============================================================================
Tap to rate this tab
# A B C D E F G H I J K L M N O P Q R S T U V W X Y Z