Song name
# A B C D E F G H I J K L M N O P Q R S T U V W X Y Z

Tokyo Rose - Hard Eight tab

Intro/Verse Guitar 
(med Tremolo effect + partial delay)
|---------|---------------------|
|-------5-|---------5---------5-|
|---0-----|-0---0-----0---0-----|
|-7---7---|---7---7-----7---7---|
|---------|---------------------|
|---------|---------------------|
           (play over and over until chorus)

Chorus
|------------------------------------------------|
|------------------------------------------------|
|------------------------------------------------|
|-0-0-0-0-0-0-5-5-5-5-5-5--0-0--0-0--5-5-5-6-6-6-|
|-0-0-0-0-0-0-5-5-5-5-5-5--0-0--0-0--5-5-5-5-5-5-|
|-0-0-0-0-0-0-5-5-5-5-5-5--0-0--0-0--5-5-5-6-6-6-|

|-----------------------------------------------------------------------|
|-----------------------------------------------------------------------|
|-----------------------------------------------------------5-5-5-------|
|-7-7-0-2-0-3-3-0-2-0-5-5-0-2-0-6-6-5-/-7-7-0-2-0-3-3-0-2-0-5-5-5-5-5-5-|  
|-7-7-0-2-0-3-3-0-2-0-5-5-0-2-0-5-5-5-/-7-7-0-2-0-3-3-0-2-0-3-3-3-5-5-5-|
|-7-7-0-2-0-3-3-0-2-0-5-5-0-2-0-6-6-5-/-7-7-0-2-0-3-3-0-2-0-------5-5-5-|
(Play 2 times)

Interlude

Guitar#1
|-------------------------------------------------------------------------|
|-------------------------------------------------------------------------|
|-------------------------------------------------------------------------|
|-3------0------5------10--9--7--5--3------5-5-5-6-6-6--7-7--5h7-7--5h7-7-|
|-3-(x6)-0-(x6)-5-(x6)-10--9--7--5--3-(x6)-5-5-5-5-5-5--7-7--5h7-7--5h7-7-|
|-3------0------5------10--9--7--5--3------5-5-5-6-6-6--7-7--5h7-7--5h7-7-|

|-------|
|-------|
|-------|
|-5-7\0-| 
|-5-7\0-|
|-5-7\0-|

Guitar#2
|-------------------------------------------------------------------------|
|---5-----5-----5-----5-----6-----6-----5-----5-----5-----5-----3-----3---|
|-----5-----5-----5-----5-----0-----0-----5-----5-----5-----5-----4-----4~|
|-3-----3-----3-----3-----5-----5-----3-----3-----3-----3-----3-----3-----|
|-------------------------------------------------------------------------|
|-------------------------------------------------------------------------|

Tabbed by Joe.
Tap to rate this tab
# A B C D E F G H I J K L M N O P Q R S T U V W X Y Z