Guitaretab - guitar tabs
Song name
# A B C D E F G H I J K L M N O P Q R S T U V W X Y Z

Tolidos - Siete Y Media tab

TqMmM rubi


intro...
se repite varias veces y luego esto
e-------------------''----------3---------|
B-------------------''--------------------|
G---4-----4h5-4---4-''----4--------4--4 --|
D-----5---------5---''------5--------5----|
A-------------------''--------------------|
E-3-----3-----------''--3-----3-----------|

luego vienen los acordes quintos..ustedes sigam el ritmo de la cancion
  G5  D5   B5   C5
e--------------------|
B--------------------|
G-----7**--4xx/-5**--|
D-5**-7**--4xx/-5**--|
A-5**-5**--2xx/-3**--|
E-3**----------------|

E--------------------------------------------|
B--------------------------------------------|
G------7**-------------------4xx-/5**--------|
D-5**--7**-5h7--4-5-4-5-4-0--4xx-/5**--------|
A-5**--5**-------------------2xx-/3**--------|
E-3**----------------------------------------|

e--------------------------------------------|
B--------------------------------------------|
G----9**--7**--5**x-4/5**--------------------|
D-2--9**--7**--5**x-4/5**--5-4-2-4-2-0-------|
A-2--7**--5**--3**x-2/3**--------------------|
E-0------------------------------------------|


aqui empieza la letra.esta parte se toca con acorde quintos ustedes
solo sigan el rutmo en la cancion yo les dare los tonos,
metanle palm mute y todo el pedo....

[ Tab from: http://www.guitaretab.com/t/tolidos/112840.html ]
G5     D5         B5           C5
Parece ke ninguno de los dos dejo de tirar de la cuerda
G5        D5           B5               C5
que al no resistir los dos quedamos del mismo lado
G5           D5             B5      C5
por que el orgullo nos pudo separar asi
G5    D5              B5              C5
puede ser mas fuerte de lo que ahi en mi no...


D5                     B5/C5
no me importa estar mal
D5                         B5/C5
tal ves es todo lo ke somos
D5                     B5/C5
no me importa estar mal
D5                         B5   C5
tal ves es todo lo ke somos


*(LA SIEGUENTE ESTROFA LA PUEDEN TOCAR COMO LA PRIMERA ESTROFA,
PERO ESTOS SON LOS TONOS KE SE ESCICHAN EN LA CANCION NO EDITADA KE TENGO)

G5                        B5              C5
parece esto es todo lo ke hemos llegado a ser
G5    B5                    C5
por ke entre tu y yo no hay nada mas ke ver, nada ke ver
G5     B5               C5
parece ke esto es lo ke hemos llegado a ser
D5                  B5               C5
si estoy exagerando por que no dices ya nada que ver

G5, D5, B5, C5,  G5, D5, B5, C5

(BAJEO)
G----------------|
D----------------|
A----55--22--33--|
E-33-------------|

REKINTO ANTES DEL SOLO
e--------------------------------------------|
B--------------------------------------------|
G--12-12-------------------------------------|
D--------9-9-10-10-9-9--10-10-99-------------|
A--------------------------------------------|
E--------------------------------------------|

despues de esto viene el solo pero ya ke solo he sacado una parte mejor
se lo enviare completo en otro tab....

y se vuelve a repiter la estrofa

*
parece ke esto es lo que hemos llegado a ser....
Related for Siete Y Media tab
Advertisement will be closed in 10 seconds