Song name
# A B C D E F G H I J K L M N O P Q R S T U V W X Y Z

Tolidos - Burbujas tab

Que onda aqui les va el Tab de Tolidos una exelente bande de cd Juarez, estoy un 95% seguro
de que esta bien.

Intro

e----------------------------------------------I
B----------------2-----2-----------------------I
G---6------6----2-2-2-2-2-2-2---2-2---2-2---2-2I
D--7-7-7--7-7-7--------------------------------I X 2
A--------------------------2-2-2-4-4-4---------I
E-5---5--4---4-2---2-0---0-------------2-2-2-2-I

Verso: Es lo mismo que el intro pero solo una vez.


Precoro

e-----I
B-----I
G-----I
D--4--I
A--4--I --->Escucha la cancion para que veas
E--2--I     cuantas veces se toca antes de pasar al coro


Coro

e-----------------------------I
B-----------------------------I
G---------------444444-666666-I
D-777777-222222-444444-666666-I X 2
A-777777-222222-222222-444444-I
E-555555-000000---------------I

Nota: cuando se toca la ultima parte del coro solo de tocan
una vez los ultimos dos acordes y se pasa al verso, es cuestion
de escuchar la cancion.


Verso   X 2
Precoro
Coro    X 4

Eso es toda la cancion, espero les ayude y cualquier correccion es bien recibida
ahh y que viva !!!VAN!!! una banda de Huejutla,Hgo.de la cual soy miembro yeah !!!
Adios.
Tap to rate this tab
# A B C D E F G H I J K L M N O P Q R S T U V W X Y Z