Song name
# A B C D E F G H I J K L M N O P Q R S T U V W X Y Z

Tom Baxter - Day In Verona tab

Tom Baxter - Day In Verona (From the album Feather & Stone)

Tips:- The initial finger positioning can be quite complex to get at first;
watching Tom do it he keeps his first finger (left index) rooted on the 3rd fret
of the bottom E string throughout the intro and verses,

Intro

    G             G2            D*             G

E---------3p0-----------2p0-----------0--------------3----------------------|
B------3-------3-------------3-----------3--------------3-------------------|
G---0----------------0-------------0--------0-----0--------0--Play 4 times--|
D-----------------4-------------2--------------0----------------------------|
A---------------------------------------------------------------------------|
E---3-------------3-------------3--------------3----------------------------|


Verse 1

     G            G2            D*             G

We LOST          OURSELVES

E---------3p0-----------2p0-----------0--------------3----------------------|
B------3-------3-------------3-----------3--------------3-------------------|
G---0----------------0-------------0--------0-----0--------0----------------|
D-----------------4-------------2--------------0----------------------------|
A---------------------------------------------------------------------------|
E---3-------------3-------------3--------------3----------------------------|
Tap to rate this tab
 
# A B C D E F G H I J K L M N O P Q R S T U V W X Y Z