Song name
# A B C D E F G H I J K L M N O P Q R S T U V W X Y Z

Tom Baxter - Tell Her Today tab

			     Tom Baxter - Tell Her Today

Tabbed by: BboyTomo
Email: tomwoodward18@hotmail.com

Tuning: Standard
Capo: 5th Fret

Intro:

e|---------0-----------0-------------------0-----------0---------------------|
B|-----0-----------0-----------0-------0-----------0-----------0-------------|
G|-------------------------0-------------------------------0-----------------|
D|-------------2-------------------------------2-----------------------------|
A|---------------------------------------------------------------------------|
E|--0------------------------------0-----------------------------------------|

e|----------0-----------0-------------------0-----------0--------------------|
B|------0-----------0-----------0-------0-----------0-----------0------------|
G|--------------------------0------------------------------------------------|
D|--------------2-------------------------------2----------------------------|
A|---------------------------------------------------------------------------|
E|--0-------------------------------3-----------------------2----------------|

e|----------0-----------0-------------------0-----------0--------------------|
B|------0-----------0-----------0-------0-----------0-----------0------------|
G|--------------------------0-------------------------------0----------------|
D|--------------2-------------------------------2----------------------------|
A|---------------------------------------------------------------------------|
E|--0-------------------------------0----------------------------------------|

e|----------0-----------0-------------------0----------0---------------------|
B|------0-----------0-----------0-------0----------0-----------0-------------|
G|--------------------------0------------------------------------------------|
D|--------------2------------------------------0-----------------------------|
A|---------------------------------------------------------------------------|
E|--0-------------------------------3-----------------------2----------------|




| /  slide up
| \  slide down
| h  hammer-on
| p  pull-off
| ~  vibrato
| +  harmonic
| x  Mute note
===============================================================================
Tap to rate this tab
 
# A B C D E F G H I J K L M N O P Q R S T U V W X Y Z