Guitaretab - guitar tabs
Song name
# A B C D E F G H I J K L M N O P Q R S T U V W X Y Z

Tom Cochrane - Good Times tab

Highlighted       Show chord diagrams
Tom Cochrane  Good Times

Intro and Fill throughout (tune low E down to D#):
      D#		  Cm	      A#		  G#
e-----------------------------------------------------]
B-----------------------------------------------------]
G-----------------------------------------------------]
D-------------------1-1---1----1--------1-------------]
A-----------------------1--------1-1-1----1-----------]
D#----0------0-------------------------------5-0------]

D#
Put the van tape on
Cm
Bay at the moon
A#
Rub each other down so good
G#
Forget about the tune that's playing

D#
Joan went east
Cm
And she went west
A#
I stayed right here in the middle
G#
That's where I liked it best

Cm	D#
Oh The good times we had
G#
Wouldn't worry about tomorrow
A#
'Cause tonight was all we had
Cm	D#
Oh The good times we knew
G#
I'd tell you about them baby
A#
But you were there, you were with me, too
D#     Cm		   G#	   A#
          And it felt so good

D#				 Cm
Funny how you look back on all the times we had
A#			G#
Remember all the good ones, forget about all the bad
D#				Cm
Hanging out day after day in the hole in the wall
A#				     G#
Things that seem to be so big then now somehow seems so small
[ Tab from: http://www.guitaretab.com/t/tom-cochrane/170532.html ]
Cm	D#
Oh The good times we had
G#
Wouldn't worry about tomorrow
A#
'Cause tonight was all we had
Cm	D#
Oh The good times we knew
G#
I'd tell you about them baby
A#
But you were there, you were with me, too

G#			  A#
The heart is a hunter, the heart is a friend
Gm			A#
Searching the shadows, searching 'til the end
G#		     A#
I heard she married a guy from the valley
Cm		      D#
Not for the glory but because he was a friend

Cm			       A#
When the fire burn out, and the waters run dry
G#				 A#
The mountains have fallen, we'll remember those times
Cm			    A#
The seasons roll by, and the youth slips away
G#			A#
The glory has faded, then what will we say?

Cm	D#
Oh The good times we had
G#
Wouldn't worry about tomorrow
A#
'Cause tonight was all we had
Cm	D#
Oh The good times we knew
G#
I'd tell you about them baby
A#
But you were there, you were with me, too

(Repeat Chorus) ---Fade Out---

Chords: (easiest way to do this is with a cappo on the first fret covering strings E
B G D and A, so you can play the D# as an open chord)

      A#	   Cm	Cm   D#	   D#	Gm    G#
E-----6-----3-----8-----3-----11----3-----4-----|
B-----6-----4-----8-----4-----11----3-----4-----|
G-----7-----5-----8-----3-----12----3-----5-----|
D-----8-----5-----10----1-----13----5-----6-----|
A-----8-----3-----X-----X-----X-----5-----6-----|
D#----X-----X-----X-----X-----X-----X-----X-----|


Please note: I did not tab this, but I think it should be on UG because it is one of Tom 
biggest songs.
Related for Good Times tab