Song name
# A B C D E F G H I J K L M N O P Q R S T U V W X Y Z

Tom Cochrane - Life Is A Highway tab

 [Intro]
 e|----------------------------------------------------------------------------|
 B|----------------------------------------------------------------------------|
 D|---7-5-3-3-3-3-----3-3-5-5-3-3-5-5------------------------------------------|
 A|---7-5-3-3-3-3-3-3-3-3-5-5-3-3-5-5------------------------------------------| X2
 D|---5-3-1-1-1-0-3-3-1-0-3-3-1-0-3-3------------------------------------------|
 E|---------------1-1----------------------------------------------------------|

Bb *
Life`s like a road that you travel on
F *
When there`s one day here and the next day gone
C *
Sometimes you bend and sometimes you stand
C *
Sometimes you turn your back to the wind
Bb *
There`s a world outside every darkened door
F*
Where blues won`t haunt you anymore
C *
Where the brave are free and lovers soar
C *
Come ride with me to the distant shore
Dm                               C
We won`t hesitate Break down the garden`s gate
Bb                                G
There`s not much time left today

Chorus: Same as the intro
 [Intro]
 e|-------------------------------------------------------------------------------|
 B|-------------------------------------------------------------------------------|
 D|---7-5-3-3-3-3-----3-3-5-5-3-3-5-5---------------------------------------------|
 A|---7-5-3-3-3-3-3-3-3-3-5-5-3-3-5-5---------------------------------------------| X2
 D|---5-3-1-1-1-0-3-3-1-0-3-3-1-0-3-3---------------------------------------------|
 E|---------------1-1-------------------------------------------------------------|


Life is a highway

I want to ride it all night long

If you`re going my way

I want to drive it all night long
Bb*
Through all these cities and all these towns
F*
It`s in my blood and it`s all around
C*
I love you now like I loved you then
C*
This is the road and these are the hands
Bb*
From Mozambique to those Memphis nights
F*
The Khyber Pass to Vancouver`s lights
C*
Knock me down get back up again
C*
You`re in my blood I`m not a lonely man
Dm
There`s no load I can`t hold
C
The Road so rough this I know
Bb

I`ll be there when the light comes in
         G
Just tell them we`re survivors

Chorus 2 times:

Gm                   B             Dm        C
There was a distance between you and I
Gm               B          Dm
A misunderstanding once but now
          C
 We look it in the eye
Intro with solo:
Dm
They are no load that I can`t hold
C
Road so rough this I know
Bb
I`ll be there when the light comes in
G
Just tell them we`re survivors

Chorus 3 times and fade with only the music...


Bb*

Guitar
e|---------------------------------------------------------|
B|---------------------------------------------------------|
G|3--------------------------------------------------------|
D|3--------------------------------------------------------|
A|1--------------------------------------------------------|
E|---------------------------------------------------------|

F*

e|---------------------------------------------------------|
B|---------------------------------------------------------|
G|---------------------------------------------------------|
D|3--------------------------------------------------------|
A|3--------------------------------------------------------|
E|1--------------------------------------------------------|

C*

e|---------------------------------------------------------|
B|---------------------------------------------------------|
G|5--------------------------------------------------------|
D|5--------------------------------------------------------|
A|3--------------------------------------------------------|
E|---------------------------------------------------------|


Dm

Guitar
e|5-----------------------------------------------------|
B|6-----------------------------------------------------|
G|7-----------------------------------------------------|
D|7-----------------------------------------------------|
A|5-----------------------------------------------------|
E|5-----------------------------------------------------|

C

e|3-----------------------------------------------------|
B|5-----------------------------------------------------|
G|5-----------------------------------------------------|
D|5-----------------------------------------------------|
A|3-----------------------------------------------------|
E|------------------------------------------------------|

Bb

e|1-----------------------------------------------------|
B|3-----------------------------------------------------|
G|3-----------------------------------------------------|
D|3-----------------------------------------------------|
A|1-----------------------------------------------------|
E|------------------------------------------------------|

G

Guitar
e|3-----------------------------------------------------|
B|0-----------------------------------------------------|
G|0-----------------------------------------------------|
D|0-----------------------------------------------------|
A|2-----------------------------------------------------|
E|3-----------------------------------------------------|

Gm

e|3-----------------------------------------------------|
B|3-----------------------------------------------------|
G|3-----------------------------------------------------|
D|5-----------------------------------------------------|
A|5-----------------------------------------------------|
E|3-----------------------------------------------------|

B

e|6--------------------------------------------------------|
B|6--------------------------------------------------------|
G|7--------------------------------------------------------|
D|8--------------------------------------------------------|
A|8--------------------------------------------------------|
E|6--------------------------------------------------------|
Tap to rate this tab
# A B C D E F G H I J K L M N O P Q R S T U V W X Y Z