Song name
# A B C D E F G H I J K L M N O P Q R S T U V W X Y Z

Tom Cochrane - Avenue A tab

----------------------------------------------------------------------------
			     Avenue A - Tom Cochrane
----------------------------------------------------------------------------
Tabbed by: David Scott 
Email: number1partyguy@hotmail.com

Tuning: Standard (key of D maj)

enjoy

 intro
                                                            
1.
e|--10-----10--------5-----5-------3------3--------2--------3/5/3----------|
B|-----0-------0--------0-----0--------0-----0------3-------3/5/3----------|
G|---------------------------------------------------2------4/6/4----------|
D|--0----------------0-------------0------------------0--------------------|
A|-------------------------------------------------------------------------|
E|-------------------------------------------------------------------------|

e|--10-----10--------5-----5-------3------3--------2--------3/5/3----------|
B|-----0-------0--------0-----0--------0-----0------3-------3/5/3----------|
G|---------------------------------------------------2------4/6/4----------|
D|--0----------------0-------------0------------------0--------------------|
A|-------------------------------------------------------------------------|
E|-------------------------------------------------------------------------|

e|--10-----10--------5-----5-------3------3--------2--------3-5/3----------|
B|-----0-------0--------0-----0--------0-----0------3-------3-5/3----------|
G|---------------------------------------------------2------4/6/4----------|
D|--0----------------0-------------0------------------0--------------------|
A|-------------------------------------------------------------------------|
E|-------------------------------------------------------------------------|

   Verse/ last two lines of intro 

   D      A     Gadd5     D
2.
e|--0/2---------3---------2------------------------------------------------|
B|--3-----2-----3---------3------------------------------------------------|
G|--2-----2---------------2------------------------------------------------|
D|--0-----2---------------0------------------------------------------------|
A|--------------2----------------------------------------------------------|
E|--------------3----------------------------------------------------------|

3.
e|--7------7---------5-----5-------3------3---------2----------------------|
B|-----0------0---------0-----0------- 0-----0------3----------------------|
G|--------------------------------------------------2----------------------|
D|--0----------------0-------------0----------------0----------------------|
A|-------------------------------------------------------------------------|
E|-------------------------------------------------------------------------|



 Chorus : (only chords, not representative of timing)
4.
e|----x-----x------x-------------------------------------------------------|
B|----x-----x------x-------------------------------------------------------|
G|----7-----7------x-------------------------------------------------------|
D|----5-----7------7-------------------------------------------------------|
A|----5-----5------7-------------------------------------------------------|
E|----x-----x------5-------------------------------------------------------|

Verse 1
 D                A
You want to be an actress

     G               D
And step down on the stage

line 3
You are going to the school juliard, To learn how to strut so high and proud

 D                    A
Make me stand up and notice

      G           D
That you are not afraid

line 3
I believe in you, And I believe you'll have it made


Chorus: play line 4 over words

I cut out my heart,  and nail it away 
4.
e|----x-------x-----------x---------------------------------------|
B|----x-------x-----------x---------------------------------------|
G|----7-------7-----------x--------Repeat for all lines of chorus-|
D|----5-------7-----------7---------------------------------------|
A|----5-------5-----------7---------------------------------------|
E|----x-------x-----------5---------------------------------------|
Save it for your summer holiday
You'll forget about me,  When your name is on the marquee
And the rich boys come out to play, Upon Avenue "A"


Verse 2

You've got your reasons
And I've got mine
I'll nail your cards and letter on the wall
To remind me that you are still out there
Because I won't know the girl on the screen at all

Chorus

Cut out my heart
And nail it away
And save it for your summer holiday
You'll forget about me
When your name is on the marquee
And your up on Avenue "A"
Cut out my heart
And nail it away
And save it for your summer holiday
Teach them how to laugh and feel
When they put you to the test
For there is something special in you
That you must express
Don't forget about me
When your name is on the marquee
And the rich men come to stay
Up on Avenue "A"
Up on Avenue "A" 

---------------------------------------------------------------------------



| /  slide up
| \  slide down
| h  hammer-on
| p  pull-off
| ~  vibrato
| +  harmonic
| x  Mute note
===============================================================================
Tap to rate this tab
# A B C D E F G H I J K L M N O P Q R S T U V W X Y Z