Song name
# A B C D E F G H I J K L M N O P Q R S T U V W X Y Z

Tom Dice - Il Nous Faut tab

« Il nous faut » de Tome Dice & Elisa Tovati

Merci à Buffy qui à fait la tablature !!

Vous trouverez la vidéo explicative correspondant à cette tablature
sur youtube ( Pseudo Ipsaous ) : http://www.youtube.com/watch?v=X8tQSL92f60


Capodastre 3ème frette.


p=pouce, i=index, an=annulaire, m=majeur.



Intro :

    Am           G*

  p i an m i   p i an m  i
|--------------------------|
|-----1------------0-------|
|--------2------------0----|  3 fois
|---2------2-----0-------0-|
|-0------------------------|
|--------------3-----------|

    Am

  p i an m i  p
|----------------------------|
|-----1----------------------|
|--------2-------------------|
|---2------2-----------------|
|-0--------------------------|
|-------------3--------------|
              ~

1er couplet :

     Am           G*

  p i an m i   p i an m i
|---------------------------|
|-----1------------0--------|
|--------2------------0-----|  4 fois
|---2------2-----0------0---|
|-0-------------------------|
|--------------3------------|

       C                        Am        Am

  p i an m i  p i m  p i m   p i an m i   p i an m i
|----------------------------------------------------|
|-----1--------------------------1------------1------|
|--------0--------0------0----------2------------2---|
|---2------2----2------0-------2------2-----2------2-|
|-3-----------3------2-------0------------0----------|
|----------------------------------------------------|

                C

  p         i  an m i p  an
|---------------------------------|
|--------------3------------------|
|-----------------0---------------|
|-----------4-------4-------------|
|-3s5-----------------5-----------|
|------------------------3--------|
                         ~

2ème couplet :


       Am           G*

  p i an m i   p i an m i
|---------------------------|
|-----1------------0--------|
|--------2------------0-----|  3 fois
|---2------2-----0------0---|
|-0-------------------------|
|--------------3------------|


    Am            C

   p i an m i   p i an m i  p i m   p i m
|------------------------------------------|
|------1------------1----------------------|
|---------2------------0--------0-------0--|
|----2------2-----2------2----2-------0----|
|--0------------3-----------3-------2------|
|------------------------------------------|


   Am             Am

  p i an m i   p i an m i
|------------------------------|
|------1-----------1-----------|
|--------2------------2--------|
|---2------2-----2------2------|
|-0------------0---------------|
|------------------------------|



1er refrain :


     Em         C             G           D

  p i m an    p i m an    p i m an    p i m an
|--------------------------------------------2-------|
|-------0------------1-----------0--------3----------|
|-----0-----------0-----------0---------2------------|  2 fois
|---2-----------2-----------0---------0--------------|
|-2-----------3--------------------------------------|
|-------------------------3--------------------------|


3ème couplet comme le 2ème...


2ème refrain en rythmique (2 fois):


Em : B B B H( pendant changement d'accord )
C : ( BHBB BH )
G : B B B H ( pendant changement d'accord )
D : ( BHBB BH )


Pont instrumental :


     Am          D           G           C            Am          D

  p i m an    p i m an    p i m an    p i m an     p i m an    p i m an
|--------------------2------------------------------------------------2---------|
|-------1----------3--------------0-----------1----------1---------3------------|
|-----2---------2-------------0-----------0------------2---------2--------------|
|---2---------0-------------0-----------2------------2---------0----------------|
|-0-----------------------------------3------------0----------------------------|
|-------------------------3-----------------------------------------------------|

Reprise du refrain rythmique.
Tap to rate this tab
 
# A B C D E F G H I J K L M N O P Q R S T U V W X Y Z