Song name
# A B C D E F G H I J K L M N O P Q R S T U V W X Y Z

Tom Gabel - Random Hearts tab

Tom Gabel - Random Hearts

Intro & Bridge:

e------------------------------------3---------------|
B------------------------------------3---------------|
G--7---0--0---4-----------7---0--0---0---------------|
D--7---4--2---4---0-2-0---7---4--2---0---2---0-2-0---|
A--5---5--5---2---0-0-0---5---5--5---2---2---0-0-0---|
E------------------------------------3---0-----------|


Verse & Chorus:

e-----------------------|
B------3---5------------|
G--4---2---4---4--------|
D--4---0---2---4--2-0---|
A--2-----------2--0-0---|
E-----------------------|

End of last chorus:

e--------------3----------|
B------3---5---3----------|
G--4---2---4---0------4---|
D--4---0---2---0------4---|
A--2-----------2------2---|
E--------------3----------|


Lyrics:

Gimme all the hate you feel
Binge and purge
All over, cannot change, we’re gonna destroy
Breathe in the sea of seas, we’re in this together

Random hearts that beat for each other
Random hearts in a cruel, cruel world

I don’t care what they hear
I know the way, say same
Broken fingers for broken chords
The effort is indelible
The frequency is not decay
We’re in this together

Random hearts that beat for each other
Random hearts in a cruel, cruel world

The only world you’ll ever know
Is what you see in a movie
Suburban TV babies
We share the same accent
American disillusion
We’re in this together

Random hearts that beat for each other
Random hearts in a cruel, cruel world, such a cruel, cruel world
Tap to rate this tab
# A B C D E F G H I J K L M N O P Q R S T U V W X Y Z