Song name
# A B C D E F G H I J K L M N O P Q R S T U V W X Y Z

Tom Gabel - Cowards Sing At Night tab

intro/bridge: X2

e-----x----x-x----x------------------------------------|
B-----x----x-x----x------------------------------------|
G--11-x-11-x-x-11-x-11-11-11-11-11-11-11---------------| X2
D---x-x--x-x-x--x-x--x--x--x--x--x--x--x---------------|
A---9-x--9-x-x--9-x--9--9--9-12-12-12-12---------------|
E--10-x-10-x-x-10-x-10-10-10-10-10-10-10---------------|
    v v  ^ v ^ v  v  ^  v  ^  v  ^  v  ^

e-----x---x-x---x---x-x-------x---x--------------------|
B-----x---x-x---x---x-x-------x---x--------------------|
G---6-x-6-x-x-6-x-6-x-x-----4-x-4-x-4-4-4-4-4-4-4-6-6--|
D---7-x-7-x-x-7-x-7-x-x-4-0-4-x-4-x-4-4-4-5-5-5-5-7-7--|
A---7-x-7-x-x-7-x-7-x-x-5-5-2-x-2-x-2-2-2-5-5-5-5-7-7--|
E---5-x-5-x-x-5-x-5-x-x-5-5---x---x-------3-3-3-3-5-5--|
    v v ^ v ^ v v ^ v ^ v v v v ^ v ^ v ^ v ^ v ^ v v


verse:X2

e-----x-----------x-----------x-----------x---------------|
B-----x-----------x-----------x-----------x---------------|
G-----x-11-11-----x-11-11-----x-11-11-----x-11-11---------|
D---x-x--x--x---x-x--x--x---x-x--x--x---x-x--x--x---------|
A---9-x--9--9---9-x--9--9--12-x-12-12--12-x-12-12---------|
E--10-x-10-10--10-x-10-10--10-x-10-10--10-x-10-10---------|
    v v  ^  ^   v v  ^  ^   v v  ^  ^   v v  ^  ^

e-----x--------x--------x-----x-x----------------|
B-----x-5-5----x-5-5----x-3-3-x-x----------------|
G-----x-6-6----x-6-6----x-4-4-x-x-4-4-4-4-6-6----|
D---7-x-7-7--7-x-7-7--5-x-5-5-x-x-5-5-5-5-7-7----|
A---7-x-7-7--7-x-7-7--5-x-5-5-x-x-5-5-5-5-7-7----|
E---5-x------5-x------3-x-3-3-x-x-3-3-3-3-5-5----|
    v v ^ ^  v v ^ ^  v v ^ ^ v ^ v ^ v ^ v v

chorus:X2

e-----x-----------x-----------x-----------x-----------x----------|
B-----x-----------x-----------x-----------x-----------x----------|
G-----x-11-11-----x-11-11-----x-11-11-----x-11-11-----x-11-11----|
D---x-x--x--x---x-x--x--x---x-x--x--x---x-x--x--x---x-x--x--x----|
A---9-x--9--9--12-x-12-12---9-x--9--9--12-x-12-12---9-x--9--9----|
E--10-x-10-10--10-x-10-10--10-x-10-10--10-x-10-10--10-x-10-10----|
    v v  ^  ^   v v  ^  ^   v v  ^  ^   v v  ^  ^   v v  ^  ^

e-----x--------x-----x-x----------------|
B-----x-5-5----x-3-3-x-x----------------|
G-----x-6-6----x-4-4-x-x-4-4-4-4-6-6----|
D---7-x-7-7--5-x-5-5-x-x-5-5-5-5-7-7----|
A---7-x-7-7--5-x-5-5-x-x-5-5-5-5-7-7----|
E---5-x------3-x-3-3-x-x-3-3-3-3-5-5----|
    v v ^ ^  v v ^ ^ v ^ v ^ v ^ v v

Intro/Bridge: X1

Verse: X1

Chorus: X1

Chorus/Outro:

e-----x-----------x-----------x-----------x-----------x----------|
B-----x-----------x-----------x-----------x-----------x----------|
G-----x-11-11-----x-11-11-----x-11-11-----x-11-11-----x-11-11----|
D---x-x--x--x---x-x--x--x---x-x--x--x---x-x--x--x---x-x--x--x----|
A---9-x--9--9--12-x-12-12---9-x--9--9--12-x-12-12---9-x--9--9----|
E--10-x-10-10--10-x-10-10--10-x-10-10--10-x-10-10--10-x-10-10----|
    v v  ^  ^   v v  ^  ^   v v  ^  ^   v v  ^  ^   v v  ^  ^

e-----x--------x-----x-x-3-3-3-5~-----------------------------5~--3~--|
B-----x-5-5----x-3-3-x-x-3-3-3-5~-----------------------------5~--3~--|
G-----x-6-6----x-4-4-x-x-4-4-4-6~----11~--11~--11~--11~--11~--6~--4~--|
D---7-x-7-7--5-x-5-5-x-x-5-5-5-7~-----x----x----x----x----x---7~--5~--|
A---7-x-7-7--5-x-5-5-x-x-5-5-5-7~-----9~--12~---9~--12~---9~--7~--5~--|
E---5-x------3-x-3-3-x-x-3-3-3-5~----10~--10~--10~--10~--10~--5~--3~--|
    v v ^ ^  v v ^ ^ v ^ v v v v      v~   v~   v~   v~   v~  v~  v~
Tap to rate this tab
 
# A B C D E F G H I J K L M N O P Q R S T U V W X Y Z