Song name
# A B C D E F G H I J K L M N O P Q R S T U V W X Y Z

Tom Gabel - Black Me Out tab

Black Me Out by Tom Gabel
Rhythm isn't 100% accurate, but you can figure it out. Great song! :)
Standard Tuning (EADGbe)

   Intro

    Gtr I
    E E  E  E  E E E E   E E  E  E E  E E E
||---------------------|--------------------|
||o--------------------|--------------------|
||---------------------|-9-9----------------|
||--7-7-11-11-11-9-7-7-|-----11-11-9h11p9p7-|
||o-0-0--0--0--0-0-0-0-|-0-0--0--0-0--0-0-0-|
||---------------------|--------------------|


  E E E E E E E E   E E E E E E E E
|-----------------|-----------------|
|-----------------|-----------------|
|-----------------|-9-9-6-6---6-----|
|-7-7-9-9-9-------|---------9---9p7-|
|-5-5-5-5-5-9p7-5-|-5-5-5-5-5-5-5-5-|
|-----------------|-----------------|


  E E E E E E E E   E E E E E E E E   E E E E E E E E   E E E E E E E E
|-----------------|-----------------|-----------------|------------------||
|-----------------|-----------------|-----------------|-----------------o||
|-4-4-6-6-4-4-6-6-|-4-4-6-6-4-4-6-4-|-2-2-4-4-6-6-2-2-|-9-9-9-9-9-9-9-9--||
|-2-2-2-2-2-2-2-2-|-2-2-2-2-2-2-2-2-|-0-0-0-0-0-0-0-0-|-0-0-0-0-0-0-0-0--||
|-0-0-0-0-0-0-0-0-|-0-0-0-0-0-0-0-0-|-----------------|-----------------o||
|-----------------|-----------------|-----------------|------------------||


   Verse
    E E E E E E E E   E E E E E E E E   E E E E E E E E   E E E E E E E E
||------------------|-----------------|-0-0-0-0-0-0-0-0-|-0-0-0-0-0-0-0-0---||
||o-2-2-2-2-2-2-2-2-|-2-2-2-2-2-2-2-2-|-3-3-3-3-3-3-3-3-|-3-3-3-3-3-3-3-3--o||
||--2-2-2-2-2-2-2-2-|-2-2-2-2-2-2-2-2-|-2-2-2-2-2-2-2-2-|-2-2-2-2-2-2-2-2---||
||--2-2-2-2-2-2-2-2-|-2-2-2-2-2-2-2-2-|-0-0-0-0-0-0-0-0-|-0-0-0-0-0-0-0-0---||
||o-0-0-0-0-0-0-0-0-|-0-0-0-0-0-0-0-0-|-----------------|------------------o||
||------------------|-----------------|-----------------|-------------------||


   Chorus
    E E E E E E E E   E E E E E E E E   E E E E E E E E   E E E E E E E E
||------------------|-----------------|-0-0-0-0-0-0-0-0-|-0-0-0-0-0-0-0-0--|
||o-2-2-2-2-2-2-2-2-|-2-2-2-2-2-2-2-2-|-3-3-3-3-3-3-3-3-|-3-3-3-3-3-3-3-3--|
||--2-2-2-2-2-2-2-2-|-2-2-2-2-2-2-2-2-|-2-2-2-2-2-2-2-2-|-2-2-2-2-2-2-2-2--|
||--2-2-2-2-2-2-2-2-|-2-2-2-2-2-2-2-2-|-0-0-0-0-0-0-0-0-|-0-0-0-0-0-0-0-0--|
||o-0-0-0-0-0-0-0-0-|-0-0-0-0-0-0-0-0-|-----------------|------------------|
||------------------|-----------------|-----------------|------------------|


  E E E E E E E E   E E E E E E E E   E E E E E E E E   E E E E E E E E
|-----------------|-----------------|-0-0-0-0-0-0-0-0-|-0-0-0-0-0-0-0-0--||
|-3-3-3-3-3-3-3-3-|-3-3-3-3-3-3-3-3-|-3-3-3-3-3-3-3-3-|-3-3-3-3-3-3-3-3-o||
|-4-4-4-4-4-4-4-4-|-4-4-4-4-4-4-4-4-|-2-2-2-2-2-2-2-2-|-2-2-2-2-2-2-2-2--||
|-4-4-4-4-4-4-4-4-|-4-4-4-4-4-4-4-4-|-0-0-0-0-0-0-0-0-|-0-0-0-0-0-0-0-0--||
|-2-2-2-2-2-2-2-2-|-2-2-2-2-2-2-2-2-|-----------------|-----------------o||
|-----------------|-----------------|-----------------|------------------||


 Pre-Verse
  E E  E  E  E E E E   E E  E  E E  E E E   E E E E E E E E   E E E E E E E E
|--------------------|--------------------|-----------------|-----------------|
|--------------------|--------------------|-----------------|-----------------|
|--------------------|-9-9----------------|-----------------|-9-9-6-6---6-----|
|-7-7-11-11-11-9-7-7-|-----11-11-9h11p9p7-|-7-7-9-9-9-------|---------9---9p7-|
|-0-0--0--0--0-0-0-0-|-0-0--0--0-0--0-0-0-|-5-5-5-5-5-9p7-5-|-5-5-5-5-5-5-5-5-|
|--------------------|--------------------|-----------------|-----------------|


  E E E E E E E E   E E E E E E E E   E E E E E E E E   E E E E E E E E
|-----------------|-----------------|-----------------|-----------------|
|-----------------|-----------------|-----------------|-----------------|
|-4-4-6-6-4-4-6-6-|-4-4-6-6-4-4-6-4-|-2-2-4-4-6-6-2-2-|-9-9-9-9-9-9-9-9-|
|-2-2-2-2-2-2-2-2-|-2-2-2-2-2-2-2-2-|-0-0-0-0-0-0-0-0-|-0-0-0-0-0-0-0-0-|
|-0-0-0-0-0-0-0-0-|-0-0-0-0-0-0-0-0-|-----------------|-----------------|
|-----------------|-----------------|-----------------|-----------------|


   Verse
    E E E E E E E E   E E E E E E E E   E E E E E E E E   E E E E E E E E
||------------------|-----------------|-0-0-0-0-0-0-0-0-|-0-0-0-0-0-0-0-0---||
||o-2-2-2-2-2-2-2-2-|-2-2-2-2-2-2-2-2-|-3-3-3-3-3-3-3-3-|-3-3-3-3-3-3-3-3--o||
||--2-2-2-2-2-2-2-2-|-2-2-2-2-2-2-2-2-|-2-2-2-2-2-2-2-2-|-2-2-2-2-2-2-2-2---||
||--2-2-2-2-2-2-2-2-|-2-2-2-2-2-2-2-2-|-0-0-0-0-0-0-0-0-|-0-0-0-0-0-0-0-0---||
||o-0-0-0-0-0-0-0-0-|-0-0-0-0-0-0-0-0-|-----------------|------------------o||
||------------------|-----------------|-----------------|-------------------||


   Chorus
    E E E E E E E E   E E E E E E E E   E E E E E E E E   E E E E E E E E
||------------------|-----------------|-0-0-0-0-0-0-0-0-|-0-0-0-0-0-0-0-0--|
||o-2-2-2-2-2-2-2-2-|-2-2-2-2-2-2-2-2-|-3-3-3-3-3-3-3-3-|-3-3-3-3-3-3-3-3--|
||--2-2-2-2-2-2-2-2-|-2-2-2-2-2-2-2-2-|-2-2-2-2-2-2-2-2-|-2-2-2-2-2-2-2-2--|
||--2-2-2-2-2-2-2-2-|-2-2-2-2-2-2-2-2-|-0-0-0-0-0-0-0-0-|-0-0-0-0-0-0-0-0--|
||o-0-0-0-0-0-0-0-0-|-0-0-0-0-0-0-0-0-|-----------------|------------------|
||------------------|-----------------|-----------------|------------------|


  E E E E E E E E   E E E E E E E E   E E E E E E E E   E E E E E E E E
|-----------------|-----------------|-0-0-0-0-0-0-0-0-|-0-0-0-0-0-0-0-0--||
|-3-3-3-3-3-3-3-3-|-3-3-3-3-3-3-3-3-|-3-3-3-3-3-3-3-3-|-3-3-3-3-3-3-3-3-o||
|-4-4-4-4-4-4-4-4-|-4-4-4-4-4-4-4-4-|-2-2-2-2-2-2-2-2-|-2-2-2-2-2-2-2-2--||
|-4-4-4-4-4-4-4-4-|-4-4-4-4-4-4-4-4-|-0-0-0-0-0-0-0-0-|-0-0-0-0-0-0-0-0--||
|-2-2-2-2-2-2-2-2-|-2-2-2-2-2-2-2-2-|-----------------|-----------------o||
|-----------------|-----------------|-----------------|------------------||


 Outro
  E E  E  E  E E E E   E E  E  E E  E E E   E E E E E E E E   E E E E E E E E
|--------------------|--------------------|-----------------|-----------------|
|--------------------|--------------------|-----------------|-----------------|
|--------------------|-9-9----------------|-----------------|-9-9-6-6---6-----|
|-7-7-11-11-11-9-7-7-|-----11-11-9h11p9p7-|-7-7-9-9-9-------|---------9---9p7-|
|-0-0--0--0--0-0-0-0-|-0-0--0--0-0--0-0-0-|-5-5-5-5-5-9p7-5-|-5-5-5-5-5-5-5-5-|
|--------------------|--------------------|-----------------|-----------------|


  E E E E E E E E   E E E E E E E E   E E E E E E E E   E E E E E E E E
|-----------------|-----------------|-----------------|-----------------|
|-----------------|-----------------|-----------------|-----------------|
|-4-4-6-6-4-4-6-6-|-4-4-6-6-4-4-6-4-|-2-2-4-4-6-6-2-2-|-9-9-9-9-9-9-9-9-|
|-2-2-2-2-2-2-2-2-|-2-2-2-2-2-2-2-2-|-0-0-0-0-0-0-0-0-|-0-0-0-0-0-0-0-0-|
|-0-0-0-0-0-0-0-0-|-0-0-0-0-0-0-0-0-|-----------------|-----------------|
|-----------------|-----------------|-----------------|-----------------|


  W          +W           +W           +W
|----------|------------|------------|--------*|
|-2--------|-(2)--------|-(2)--------|-(2)----*|
|-2--------|-(2)--------|-(2)--------|-(2)----*|
|-2--------|-(2)--------|-(2)--------|-(2)----*|
|-0--------|-(0)--------|-(0)--------|-(0)----*|
|----------|------------|------------|--------*|




--------------------------------------------------------------------------------


Tap to rate this tab
 
# A B C D E F G H I J K L M N O P Q R S T U V W X Y Z