Song name
# A B C D E F G H I J K L M N O P Q R S T U V W X Y Z

Tom Jones - Burning Hell tab

Tom Jones  - BURNING HELL

Standard Tuning

CAPO 2

Intro/Main Riff/Verse
|------------------------------|
|------------------------------|
|-9\---------------------------|
|-9\-------------5--2-----2----|
|-----2-4-2-2-2--2--2--5--2----|
|-----0-0-0-0-0--0--0--0--0----|

Sometimes itís this without the first hit
|--------------------------|
|--------------------------|
|--------------------------|
|------------5--2-----2----|
|---4-2-2-2--2--2--5--2----|
|---0-0-0-0--0--0--0--0----|

Chorus(?)
|-------------------------|
|-------------------------|
|-------------------------|
|-------------------------|
|--5--7--9--12ó-14/12\14--|
|--3--5--7--10ó-12/10\12--|

|-------------------------------------------------------------------------|
|-------------------------------------------------------------------------|
|-------------------------------------------------------------------------|
|--------------------------------------2-2-4-2-5--2-2-2--2-2-4-2-5--2-2-2-|
|--5-5-7-5-8--5-5-5--5-5-7-5-8--5-5-5--0-0-0-0-0--0-0-0--0-0-0-0-0--0-0-0-|
|--3-3-3-3-3--3-3-3--3-3-3-3-3--3-3-3-------------------------------------|

Thatís about it.  Just throw in a couple of slides up to the 9th fret like at the very 
of the song and youíre good to go!!
Tap to rate this tab
 
# A B C D E F G H I J K L M N O P Q R S T U V W X Y Z