Song name
# A B C D E F G H I J K L M N O P Q R S T U V W X Y Z

Tom Lark - Go Get A Job tab

Tom Lark - http://tomlarkmusic.com/
Go Get A Job
Standard


Intro            Verse
e|--------------||------------------------------------------------------|
B|--------------||------------------------------------------------------|
G|--------------||------------------------------------------------------|
D|--------------||------------------------------------------------------|
A|-6--6--6--6-6-||-6--6--6--6-6-6--6--6--6-6-3--3--3--3-3-3--3--3--3-3--|
E|-4--4--4--4-4-||-4--4--4--4-4-4--4--4--4-4-1--1--1--1-1-1--1--1--1-1--|

Verse cont.                                                      Pre-Chorus
e|----------------------------------------------------------|    |---------------||
B|----------------------------------------------------------|    |---------------||
G|----------------------------------------------------------|    |---------------||
D|-5--5--5--5-5-5--5--5--5-5-3--3--3--3-3---------5-5--3-3--| x2 |---------------||
A|-3--3--3--3-3-3--3--3--3-3-1--1--1--1-1-6--6-6--3-3--1-1--|    |-6--6--6--6-6--||
E|----------------------------------------4--4-4------------|    |-4--4--4--4-4--||


Chorus (Heavier) Or you can use 6th string powerchords for heavier sounds
e|------------------------------------------------------|
B|------------------------------------------------------|
G|--------------6~-6~-6~6~6~6~--------------3~-5~-6~-8~-|
D|-6~-6~-5b6r5--6~-6~-6~6~6~6~-6~-6~-5b6r5--3~-5~-6~-8~-| x2
A|-6~-6~--------4~-4~-4~4~4~4~-6~-6~--------1~-3~-4~-6~-|
E|-4~-4~-----------------------4~-4~--------------------|


Verse x2
Pre-Chorus
Chorus x2

Bridge
e|------------trumpet----------------------------------------------------------|
B|------------------------13------13---13--------------------------------------|
G|------------------------15b(17)-15b--15b-15-13-------------------------------|
D|-----------------------------------------------13~~-8b(9)~8b-8b-8b-~~-8~~~~~-|
A|-distortion ticks------------------------------------------------------------|
E|-----------------------------------------------------------------------------|


Pre-Chorus
Chorus x4

Coda
e|-----------------------------|
B|-----------------------------|
G|-----------------------------|
D|------5b6r5------------------|
A|-6--6--------4~-3~-1~-----6--|
E|-4--4-----------------4~--4--|
Tap to rate this tab
# A B C D E F G H I J K L M N O P Q R S T U V W X Y Z